  0
SECTION
  2
HEADER
  9
$EXTMIN
 10
0
 20
0
  9
$EXTMAX
 10
4200
 20
2970
  0
ENDSEC
  0
SECTION
  2
TABLES
  0
TABLE
  2
LTYPE
 70
     9
  0
LTYPE
  2
CONTINUOUS
 70
    64
  3
実線
 72
    65
 73
     0
 40
0.0
  0
LTYPE
  2
DASHED1
 70
    64
  3
--  --  --  --  --  --  --  --  
 72
    65
 73
     2
 40
2.5
 49
1.25
 49
-1.25
  0
LTYPE
  2
DASHED2
 70
    64
  3
----    ----    ----    ----    
 72
    65
 73
     2
 40
5.0
 49
2.5
 49
-2.5
  0
LTYPE
  2
DASHED3
 70
    64
  3
------  ------  ------  ------  
 72
    65
 73
     2
 40
5.0
 49
3.75
 49
-1.25
  0
LTYPE
  2
CENTER1
 70
    64
  3
----- - ----- - ----- - ----- - 
 72
    65
 73
     4
 40
10.0
 49
6.25
 49
-1.25
 49
1.25
 49
-1.25
  0
LTYPE
  2
CENTER2
 70
    64
  3
----------  --  ----------  --  
 72
    65
 73
     4
 40
20.0
 49
12.5
 49
-2.5
 49
2.5
 49
-2.5
  0
LTYPE
  2
PHANTOM1
 70
    64
  3
--- - - --- - - --- - - --- - - 
 72
    65
 73
     6
 40
10.0
 49
3.25
 49
-1.25
 49
1.25
 49
-1.25
 49
1.25
 49
-1.25
  0
LTYPE
  2
PHANTOM2
 70
    64
  3
--------  -  -  --------  -  -  
 72
    65
 73
     6
 40
20.0
 49
10.0
 49
-2.5
 49
1.25
 49
-2.5
 49
1.25
 49
-2.5
  0
LTYPE
  2
DOT
 70
    64
  3
-   -   -   -   -   -   -   -   
 72
    65
 73
     2
 40
2.5
 49
0.625
 49
-1.875
  0
ENDTAB
  0
TABLE
  2
STYLE
 70
    1
  0
STYLE
  2
STANDARD
 70
    64
 40
0.0
 41
1.0
 42
0.0
 50
0.0
 71
     0
  3
TXT
  4
BIGFONT
  0
ENDTAB
  0
TABLE
  2
LAYER
 70
    4
  0
LAYER
  2
1-0
 70
   64
 62
    7
  6
CONTINUOUS
  0
LAYER
  2
1-2
 70
   64
 62
    7
  6
CONTINUOUS
  0
LAYER
  2
1-d
 70
   64
 62
    7
  6
CONTINUOUS
  0
LAYER
  2
ADD_LINE
 70
   64
 62
    7
  6
CONTINUOUS
  0
ENDTAB
  0
ENDSEC
  0
SECTION
  2
ENTITIES
  0
LINE
  8
1-d
  6
CONTINUOUS
 62
    7
 10
250.00003
 20
2757.7013
 11
1850.0001
 21
2757.7013
  0
LINE
  8
1-d
  6
CONTINUOUS
 62
    7
 10
250.00003
 20
2767.7014
 11
1850.0001
 21
2767.7014
  0
LINE
  8
1-d
  6
CONTINUOUS
 62
    7
 10
249.99984
 20
129.99994
 11
1850.0005
 21
129.99994
  0
LINE
  8
1-d
  6
CONTINUOUS
 62
    7
 10
249.99984
 20
29.999945
 11
249.99984
 21
209.99993
  0
LINE
  8
1-d
  6
CONTINUOUS
 62
    7
 10
249.99984
 20
29.999945
 11
1850.0005
 21
29.999945
  0
LINE
  8
1-d
  6
CONTINUOUS
 62
    7
 10
1850.0005
 20
209.99993
 11
1850.0005
 21
29.999945
  0
LINE
  8
1-d
  6
CONTINUOUS
 62
    7
 10
249.99984
 20
209.99993
 11
1850.0005
 21
209.99993
  0
LINE
  8
1-d
  6
CONTINUOUS
 62
    7
 10
1050
 20
209.99993
 11
1050
 21
29.999945
  0
LINE
  8
1-d
  6
CONTINUOUS
 62
    7
 10
650.00019
 20
29.999945
 11
650.00019
 21
129.99994
  0
LINE
  8
1-d
  6
CONTINUOUS
 62
    7
 10
1050
 20
129.99994
 11
1050
 21
209.99996
  0
LINE
  8
1-d
  6
CONTINUOUS
 62
    7
 10
849.99987
 20
29.999945
 11
849.99987
 21
129.99994
  0
LINE
  8
1-d
  6
CONTINUOUS
 62
    7
 10
285.00021
 20
29.999945
 11
285.00021
 21
129.99994
  0
LINE
  8
1-d
  6
CONTINUOUS
 62
    7
 10
685.00006
 20
29.999945
 11
685.00006
 21
129.99994
  0
LINE
  8
1-d
  6
CONTINUOUS
 62
    7
 10
884.99999
 20
29.999945
 11
884.99999
 21
129.99994
  0
LINE
  8
1-d
  6
CONTINUOUS
 62
    7
 10
1015.0001
 20
129.99994
 11
1015.0001
 21
209.99996
  0
LINE
  8
1-d
  6
CONTINUOUS
 62
    7
 10
1550.0004
 20
129.99994
 11
1550.0004
 21
209.99996
  0
LINE
  8
1-d
  6
CONTINUOUS
 62
    7
 10
1585.0003
 20
129.99994
 11
1585.0003
 21
209.99996
  0
LINE
  8
1-0
  6
CONTINUOUS
 62
    7
 10
624.99999
 20
2523.6806
 11
1475.0014
 21
2523.6806
  0
LINE
  8
1-2
  6
CONTINUOUS
 62
    3
 10
625.0011
 20
1803.2411
 11
624.99999
 21
1719.9065
  0
LINE
  8
1-2
  6
CONTINUOUS
 62
    3
 10
787.4988
 20
1478.2413
 11
1312.5
 21
1478.2413
  0
LINE
  8
1-2
  6
CONTINUOUS
 62
    3
 10
787.4988
 20
1494.9076
 11
1312.5
 21
1494.9076
  0
LINE
  8
1-2
  6
CONTINUOUS
 62
    3
 10
787.50004
 20
1444.9074
 11
1312.5013
 21
1444.9074
  0
LINE
  8
1-2
  6
CONTINUOUS
 62
    3
 10
787.50004
 20
1428.2411
 11
1312.5013
 21
1428.2406
  0
LINE
  8
1-2
  6
CONTINUOUS
 62
    3
 10
787.4988
 20
1478.2413
 11
787.50004
 21
1444.9064
  0
LINE
  8
1-2
  6
CONTINUOUS
 62
    3
 10
1312.4988
 20
1478.2413
 11
1312.5
 21
1444.9064
  0
LINE
  8
1-2
  6
CONTINUOUS
 62
    3
 10
787.50004
 20
1619.9075
 11
787.4988
 21
1494.9076
  0
LINE
  8
1-2
  6
CONTINUOUS
 62
    3
 10
1312.4988
 20
1478.2413
 11
1312.5
 21
1444.9064
  0
LINE
  8
1-2
  6
CONTINUOUS
 62
    3
 10
1475.0014
 20
1803.2411
 11
1475.0002
 21
1719.9065
  0
LINE
  8
1-2
  6
CONTINUOUS
 62
    3
 10
624.99986
 20
2153.2407
 11
624.99986
 21
2069.9063
  0
LINE
  8
1-2
  6
CONTINUOUS
 62
    3
 10
1475.0002
 20
2153.2407
 11
1475.0002
 21
2069.9063
  0
LINE
  8
1-0
  6
CONTINUOUS
 62
    7
 10
568.55178
 20
2378.2405
 11
266.66702
 21
2378.2405
  0
LINE
  8
1-0
  6
CONTINUOUS
 62
    7
 10
1475.0014
 20
2302.5719
 11
1475.0014
 21
2523.6806
  0
LINE
  8
1-2
  6
CONTINUOUS
 62
    3
 10
624.99999
 20
1703.2403
 11
708.33327
 21
1619.9075
  0
LINE
  8
1-2
  6
CONTINUOUS
 62
    3
 10
975.96061
 20
2246.3523
 11
976.64651
 21
2246.5362
  0
LINE
  8
1-2
  6
CONTINUOUS
 62
    3
 10
976.64651
 20
2246.5362
 11
977.29084
 21
2246.7856
  0
LINE
  8
1-2
  6
CONTINUOUS
 62
    3
 10
977.29084
 20
2246.7856
 11
977.89398
 21
2247.0971
  0
LINE
  8
1-2
  6
CONTINUOUS
 62
    3
 10
977.89398
 20
2247.0971
 11
978.4569
 21
2247.4648
  0
LINE
  8
1-2
  6
CONTINUOUS
 62
    3
 10
978.4569
 20
2247.4648
 11
978.98024
 21
2247.8852
  0
LINE
  8
1-2
  6
CONTINUOUS
 62
    3
 10
978.98024
 20
2247.8852
 11
979.46485
 21
2248.3529
  0
LINE
  8
1-2
  6
CONTINUOUS
 62
    3
 10
979.46485
 20
2248.3529
 11
979.91148
 21
2248.8628
  0
LINE
  8
1-2
  6
CONTINUOUS
 62
    3
 10
979.91148
 20
2248.8628
 11
980.32099
 21
2249.4119
  0
LINE
  8
1-2
  6
CONTINUOUS
 62
    3
 10
980.32099
 20
2249.4119
 11
980.69376
 21
2249.9936
  0
LINE
  8
1-2
  6
CONTINUOUS
 62
    3
 10
980.69376
 20
2249.9936
 11
981.03102
 21
2250.6041
  0
LINE
  8
1-2
  6
CONTINUOUS
 62
    3
 10
981.03102
 20
2250.6041
 11
981.33314
 21
2251.2392
  0
LINE
  8
1-2
  6
CONTINUOUS
 62
    3
 10
981.33314
 20
2251.2392
 11
981.60112
 21
2251.8932
  0
LINE
  8
1-2
  6
CONTINUOUS
 62
    3
 10
981.60112
 20
2251.8932
 11
981.83557
 21
2252.5618
  0
LINE
  8
1-2
  6
CONTINUOUS
 62
    3
 10
981.83557
 20
2252.5618
 11
982.03736
 21
2253.24
  0
LINE
  8
1-2
  6
CONTINUOUS
 62
    3
 10
972.19321
 20
2246.3154
 11
971.40004
 21
2246.5703
  0
LINE
  8
1-2
  6
CONTINUOUS
 62
    3
 10
971.40004
 20
2246.5703
 11
970.65587
 21
2246.8719
  0
LINE
  8
1-2
  6
CONTINUOUS
 62
    3
 10
970.65587
 20
2246.8719
 11
969.95994
 21
2247.2166
  0
LINE
  8
1-2
  6
CONTINUOUS
 62
    3
 10
969.95994
 20
2247.2166
 11
969.31215
 21
2247.6034
  0
LINE
  8
1-2
  6
CONTINUOUS
 62
    3
 10
969.31215
 20
2247.6034
 11
968.71173
 21
2248.029
  0
LINE
  8
1-2
  6
CONTINUOUS
 62
    3
 10
968.71173
 20
2248.029
 11
968.15809
 21
2248.4917
  0
LINE
  8
1-2
  6
CONTINUOUS
 62
    3
 10
968.15809
 20
2248.4917
 11
967.65096
 21
2248.989
  0
LINE
  8
1-2
  6
CONTINUOUS
 62
    3
 10
967.65096
 20
2248.989
 11
967.18961
 21
2249.5183
  0
LINE
  8
1-2
  6
CONTINUOUS
 62
    3
 10
967.18961
 20
2249.5183
 11
966.77341
 21
2250.0775
  0
LINE
  8
1-2
  6
CONTINUOUS
 62
    3
 10
966.77341
 20
2250.0775
 11
966.40213
 21
2250.6642
  0
LINE
  8
1-2
  6
CONTINUOUS
 62
    3
 10
966.40213
 20
2250.6642
 11
966.07501
 21
2251.2764
  0
LINE
  8
1-2
  6
CONTINUOUS
 62
    3
 10
966.07501
 20
2251.2764
 11
965.79169
 21
2251.9113
  0
LINE
  8
1-2
  6
CONTINUOUS
 62
    3
 10
965.79169
 20
2251.9113
 11
965.55155
 21
2252.5668
  0
LINE
  8
1-2
  6
CONTINUOUS
 62
    3
 10
965.55155
 20
2252.5668
 11
965.35397
 21
2253.24
  0
LINE
  8
1-2
  6
CONTINUOUS
 62
    3
 10
932.63909
 20
2253.24
 11
931.87079
 21
2252.1216
  0
LINE
  8
1-2
  6
CONTINUOUS
 62
    3
 10
931.87079
 20
2252.1216
 11
931.09358
 21
2251.1267
  0
LINE
  8
1-2
  6
CONTINUOUS
 62
    3
 10
931.09358
 20
2251.1267
 11
930.31055
 21
2250.2482
  0
LINE
  8
1-2
  6
CONTINUOUS
 62
    3
 10
930.31055
 20
2250.2482
 11
929.52469
 21
2249.4795
  0
LINE
  8
1-2
  6
CONTINUOUS
 62
    3
 10
929.52469
 20
2249.4795
 11
928.73919
 21
2248.8133
  0
LINE
  8
1-2
  6
CONTINUOUS
 62
    3
 10
928.73919
 20
2248.8133
 11
927.95691
 21
2248.2442
  0
LINE
  8
1-2
  6
CONTINUOUS
 62
    3
 10
927.95691
 20
2248.2442
 11
927.18094
 21
2247.7635
  0
LINE
  8
1-2
  6
CONTINUOUS
 62
    3
 10
927.18094
 20
2247.7635
 11
926.41437
 21
2247.3651
  0
LINE
  8
1-2
  6
CONTINUOUS
 62
    3
 10
926.41437
 20
2247.3651
 11
925.66029
 21
2247.0417
  0
LINE
  8
1-2
  6
CONTINUOUS
 62
    3
 10
925.66029
 20
2247.0417
 11
924.92169
 21
2246.7878
  0
LINE
  8
1-2
  6
CONTINUOUS
 62
    3
 10
924.92169
 20
2246.7878
 11
924.20164
 21
2246.5943
  0
LINE
  8
1-2
  6
CONTINUOUS
 62
    3
 10
924.20164
 20
2246.5943
 11
923.50336
 21
2246.4562
  0
LINE
  8
1-2
  6
CONTINUOUS
 62
    3
 10
923.50336
 20
2246.4562
 11
922.82958
 21
2246.3649
  0
LINE
  8
1-2
  6
CONTINUOUS
 62
    3
 10
922.82958
 20
2246.3649
 11
922.18364
 21
2246.3154
  0
LINE
  8
1-2
  6
CONTINUOUS
 62
    3
 10
916.68615
 20
2253.24
 11
916.70916
 21
2252.4359
  0
LINE
  8
1-2
  6
CONTINUOUS
 62
    3
 10
916.70916
 20
2252.4359
 11
916.77869
 21
2251.6921
  0
LINE
  8
1-2
  6
CONTINUOUS
 62
    3
 10
916.77869
 20
2251.6921
 11
916.89709
 21
2251.0062
  0
LINE
  8
1-2
  6
CONTINUOUS
 62
    3
 10
916.89709
 20
2251.0062
 11
917.06733
 21
2250.3747
  0
LINE
  8
1-2
  6
CONTINUOUS
 62
    3
 10
917.06733
 20
2250.3747
 11
917.292
 21
2249.7942
  0
LINE
  8
1-2
  6
CONTINUOUS
 62
    3
 10
917.292
 20
2249.7942
 11
917.57334
 21
2249.2617
  0
LINE
  8
1-2
  6
CONTINUOUS
 62
    3
 10
917.57334
 20
2249.2617
 11
917.91419
 21
2248.7738
  0
LINE
  8
1-2
  6
CONTINUOUS
 62
    3
 10
917.91419
 20
2248.7738
 11
918.31715
 21
2248.3259
  0
LINE
  8
1-2
  6
CONTINUOUS
 62
    3
 10
918.31715
 20
2248.3259
 11
918.78468
 21
2247.9169
  0
LINE
  8
1-2
  6
CONTINUOUS
 62
    3
 10
918.78468
 20
2247.9169
 11
919.31952
 21
2247.5415
  0
LINE
  8
1-2
  6
CONTINUOUS
 62
    3
 10
919.31952
 20
2247.5415
 11
919.92439
 21
2247.1968
  0
LINE
  8
1-2
  6
CONTINUOUS
 62
    3
 10
919.92439
 20
2247.1968
 11
920.60151
 21
2246.8801
  0
LINE
  8
1-2
  6
CONTINUOUS
 62
    3
 10
920.60151
 20
2246.8801
 11
921.35385
 21
2246.5869
  0
LINE
  8
1-2
  6
CONTINUOUS
 62
    3
 10
921.35385
 20
2246.5869
 11
922.18364
 21
2246.3154
  0
LINE
  8
1-2
  6
CONTINUOUS
 62
    3
 10
870.90409
 20
2253.24
 11
871.29591
 21
2252.2953
  0
LINE
  8
1-2
  6
CONTINUOUS
 62
    3
 10
871.29591
 20
2252.2953
 11
871.70393
 21
2251.4379
  0
LINE
  8
1-2
  6
CONTINUOUS
 62
    3
 10
871.70393
 20
2251.4379
 11
872.12792
 21
2250.6642
  0
LINE
  8
1-2
  6
CONTINUOUS
 62
    3
 10
872.12792
 20
2250.6642
 11
872.56738
 21
2249.9699
  0
LINE
  8
1-2
  6
CONTINUOUS
 62
    3
 10
872.56738
 20
2249.9699
 11
873.0218
 21
2249.3503
  0
LINE
  8
1-2
  6
CONTINUOUS
 62
    3
 10
873.0218
 20
2249.3503
 11
873.49095
 21
2248.8022
  0
LINE
  8
1-2
  6
CONTINUOUS
 62
    3
 10
873.49095
 20
2248.8022
 11
873.9742
 21
2248.3207
  0
LINE
  8
1-2
  6
CONTINUOUS
 62
    3
 10
873.9742
 20
2248.3207
 11
874.47143
 21
2247.9015
  0
LINE
  8
1-2
  6
CONTINUOUS
 62
    3
 10
874.47143
 20
2247.9015
 11
874.98189
 21
2247.5408
  0
LINE
  8
1-2
  6
CONTINUOUS
 62
    3
 10
874.98189
 20
2247.5408
 11
875.50548
 21
2247.2339
  0
LINE
  8
1-2
  6
CONTINUOUS
 62
    3
 10
875.50548
 20
2247.2339
 11
876.04168
 21
2246.9773
  0
LINE
  8
1-2
  6
CONTINUOUS
 62
    3
 10
876.04168
 20
2246.9773
 11
876.59025
 21
2246.7658
  0
LINE
  8
1-2
  6
CONTINUOUS
 62
    3
 10
876.59025
 20
2246.7658
 11
877.15033
 21
2246.5963
  0
LINE
  8
1-2
  6
CONTINUOUS
 62
    3
 10
877.15033
 20
2246.5963
 11
877.72204
 21
2246.4637
  0
LINE
  8
1-2
  6
CONTINUOUS
 62
    3
 10
878.97904
 20
2246.4637
 11
879.57512
 21
2246.5765
  0
LINE
  8
1-2
  6
CONTINUOUS
 62
    3
 10
879.57512
 20
2246.5765
 11
880.1665
 21
2246.7569
  0
LINE
  8
1-2
  6
CONTINUOUS
 62
    3
 10
880.1665
 20
2246.7569
 11
880.75293
 21
2247.0038
  0
LINE
  8
1-2
  6
CONTINUOUS
 62
    3
 10
880.75293
 20
2247.0038
 11
881.33479
 21
2247.3173
  0
LINE
  8
1-2
  6
CONTINUOUS
 62
    3
 10
881.33479
 20
2247.3173
 11
881.91145
 21
2247.6979
  0
LINE
  8
1-2
  6
CONTINUOUS
 62
    3
 10
881.91145
 20
2247.6979
 11
882.48353
 21
2248.1453
  0
LINE
  8
1-2
  6
CONTINUOUS
 62
    3
 10
882.48353
 20
2248.1453
 11
883.05066
 21
2248.6599
  0
LINE
  8
1-2
  6
CONTINUOUS
 62
    3
 10
883.05066
 20
2248.6599
 11
883.61309
 21
2249.2412
  0
LINE
  8
1-2
  6
CONTINUOUS
 62
    3
 10
883.61309
 20
2249.2412
 11
884.17057
 21
2249.889
  0
LINE
  8
1-2
  6
CONTINUOUS
 62
    3
 10
828.99891
 20
2253.24
 11
829.11236
 21
2252.52
  0
LINE
  8
1-2
  6
CONTINUOUS
 62
    3
 10
829.11236
 20
2252.52
 11
829.2732
 21
2251.8494
  0
LINE
  8
1-2
  6
CONTINUOUS
 62
    3
 10
829.2732
 20
2251.8494
 11
829.47796
 21
2251.2259
  0
LINE
  8
1-2
  6
CONTINUOUS
 62
    3
 10
829.47796
 20
2251.2259
 11
829.72267
 21
2250.6491
  0
LINE
  8
1-2
  6
CONTINUOUS
 62
    3
 10
829.72267
 20
2250.6491
 11
830.00389
 21
2250.1159
  0
LINE
  8
1-2
  6
CONTINUOUS
 62
    3
 10
830.00389
 20
2250.1159
 11
830.31826
 21
2249.6242
  0
LINE
  8
1-2
  6
CONTINUOUS
 62
    3
 10
830.31826
 20
2249.6242
 11
830.66257
 21
2249.1726
  0
LINE
  8
1-2
  6
CONTINUOUS
 62
    3
 10
830.66257
 20
2249.1726
 11
831.03398
 21
2248.7606
  0
LINE
  8
1-2
  6
CONTINUOUS
 62
    3
 10
831.03398
 20
2248.7606
 11
831.42976
 21
2248.3853
  0
LINE
  8
1-2
  6
CONTINUOUS
 62
    3
 10
831.42976
 20
2248.3853
 11
831.84694
 21
2248.0463
  0
LINE
  8
1-2
  6
CONTINUOUS
 62
    3
 10
831.84694
 20
2248.0463
 11
832.28355
 21
2247.7419
  0
LINE
  8
1-2
  6
CONTINUOUS
 62
    3
 10
832.28355
 20
2247.7419
 11
832.73711
 21
2247.472
  0
LINE
  8
1-2
  6
CONTINUOUS
 62
    3
 10
832.73711
 20
2247.472
 11
833.20564
 21
2247.2344
  0
LINE
  8
1-2
  6
CONTINUOUS
 62
    3
 10
833.20564
 20
2247.2344
 11
833.68728
 21
2247.0291
  0
LINE
  8
1-2
  6
CONTINUOUS
 62
    3
 10
833.68728
 20
2247.0291
 11
834.18043
 21
2246.8554
  0
LINE
  8
1-2
  6
CONTINUOUS
 62
    3
 10
834.18043
 20
2246.8554
 11
834.68372
 21
2246.7118
  0
LINE
  8
1-2
  6
CONTINUOUS
 62
    3
 10
834.68372
 20
2246.7118
 11
835.19542
 21
2246.5988
  0
LINE
  8
1-2
  6
CONTINUOUS
 62
    3
 10
835.19542
 20
2246.5988
 11
835.71492
 21
2246.5164
  0
LINE
  8
1-2
  6
CONTINUOUS
 62
    3
 10
835.71492
 20
2246.5164
 11
836.2411
 21
2246.4637
  0
LINE
  8
1-2
  6
CONTINUOUS
 62
    3
 10
836.37386
 20
2246.4693
 11
836.67017
 21
2246.499
  0
LINE
  8
1-2
  6
CONTINUOUS
 62
    3
 10
836.67017
 20
2246.499
 11
836.9614
 21
2246.5411
  0
LINE
  8
1-2
  6
CONTINUOUS
 62
    3
 10
836.9614
 20
2246.5411
 11
837.24732
 21
2246.596
  0
LINE
  8
1-2
  6
CONTINUOUS
 62
    3
 10
837.24732
 20
2246.596
 11
837.52829
 21
2246.6636
  0
LINE
  8
1-2
  6
CONTINUOUS
 62
    3
 10
837.52829
 20
2246.6636
 11
837.80418
 21
2246.744
  0
LINE
  8
1-2
  6
CONTINUOUS
 62
    3
 10
837.80418
 20
2246.744
 11
838.07501
 21
2246.8373
  0
LINE
  8
1-2
  6
CONTINUOUS
 62
    3
 10
838.07501
 20
2246.8373
 11
838.34063
 21
2246.9427
  0
LINE
  8
1-2
  6
CONTINUOUS
 62
    3
 10
838.34063
 20
2246.9427
 11
838.60119
 21
2247.0615
  0
LINE
  8
1-2
  6
CONTINUOUS
 62
    3
 10
838.60119
 20
2247.0615
 11
838.85654
 21
2247.1936
  0
LINE
  8
1-2
  6
CONTINUOUS
 62
    3
 10
716.6345
 20
2253.24
 11
716.73595
 21
2252.4826
  0
LINE
  8
1-2
  6
CONTINUOUS
 62
    3
 10
716.73595
 20
2252.4826
 11
716.8431
 21
2251.79
  0
LINE
  8
1-2
  6
CONTINUOUS
 62
    3
 10
716.8431
 20
2251.79
 11
716.95642
 21
2251.1628
  0
LINE
  8
1-2
  6
CONTINUOUS
 62
    3
 10
716.95642
 20
2251.1628
 11
717.07556
 21
2250.6008
  0
LINE
  8
1-2
  6
CONTINUOUS
 62
    3
 10
717.07556
 20
2250.6008
 11
717.20052
 21
2250.1047
  0
LINE
  8
1-2
  6
CONTINUOUS
 62
    3
 10
717.20052
 20
2250.1047
 11
717.33142
 21
2249.6737
  0
LINE
  8
1-2
  6
CONTINUOUS
 62
    3
 10
717.33142
 20
2249.6737
 11
717.46813
 21
2249.3082
  0
LINE
  8
1-2
  6
CONTINUOUS
 62
    3
 10
717.46813
 20
2249.3082
 11
717.61078
 21
2249.0081
  0
LINE
  8
1-2
  6
CONTINUOUS
 62
    3
 10
717.61078
 20
2249.0081
 11
717.75924
 21
2248.7738
  0
LINE
  8
1-2
  6
CONTINUOUS
 62
    3
 10
735.08077
 20
2253.24
 11
735.13694
 21
2252.64
  0
LINE
  8
1-2
  6
CONTINUOUS
 62
    3
 10
735.13694
 20
2252.64
 11
735.22973
 21
2252.0726
  0
LINE
  8
1-2
  6
CONTINUOUS
 62
    3
 10
735.22973
 20
2252.0726
 11
735.35494
 21
2251.5377
  0
LINE
  8
1-2
  6
CONTINUOUS
 62
    3
 10
735.35494
 20
2251.5377
 11
735.50934
 21
2251.0358
  0
LINE
  8
1-2
  6
CONTINUOUS
 62
    3
 10
735.50934
 20
2251.0358
 11
735.68935
 21
2250.5669
  0
LINE
  8
1-2
  6
CONTINUOUS
 62
    3
 10
735.68935
 20
2250.5669
 11
735.89151
 21
2250.1319
  0
LINE
  8
1-2
  6
CONTINUOUS
 62
    3
 10
735.89151
 20
2250.1319
 11
736.11185
 21
2249.7299
  0
LINE
  8
1-2
  6
CONTINUOUS
 62
    3
 10
736.11185
 20
2249.7299
 11
736.34692
 21
2249.3612
  0
LINE
  8
1-2
  6
CONTINUOUS
 62
    3
 10
736.34692
 20
2249.3612
 11
736.59312
 21
2249.0261
  0
LINE
  8
1-2
  6
CONTINUOUS
 62
    3
 10
736.59312
 20
2249.0261
 11
736.84687
 21
2248.7253
  0
LINE
  8
1-2
  6
CONTINUOUS
 62
    3
 10
736.84687
 20
2248.7253
 11
737.10458
 21
2248.4588
  0
LINE
  8
1-2
  6
CONTINUOUS
 62
    3
 10
737.10458
 20
2248.4588
 11
737.36266
 21
2248.2262
  0
LINE
  8
1-2
  6
CONTINUOUS
 62
    3
 10
737.36266
 20
2248.2262
 11
737.61753
 21
2248.0282
  0
LINE
  8
1-2
  6
CONTINUOUS
 62
    3
 10
737.61753
 20
2248.0282
 11
737.86558
 21
2247.8649
  0
LINE
  8
1-2
  6
CONTINUOUS
 62
    3
 10
760.34426
 20
2253.24
 11
760.51177
 21
2252.572
  0
LINE
  8
1-2
  6
CONTINUOUS
 62
    3
 10
760.51177
 20
2252.572
 11
760.71579
 21
2251.9469
  0
LINE
  8
1-2
  6
CONTINUOUS
 62
    3
 10
760.71579
 20
2251.9469
 11
760.95469
 21
2251.3637
  0
LINE
  8
1-2
  6
CONTINUOUS
 62
    3
 10
760.95469
 20
2251.3637
 11
761.227
 21
2250.8223
  0
LINE
  8
1-2
  6
CONTINUOUS
 62
    3
 10
761.227
 20
2250.8223
 11
761.53135
 21
2250.322
  0
LINE
  8
1-2
  6
CONTINUOUS
 62
    3
 10
761.53135
 20
2250.322
 11
761.86613
 21
2249.8635
  0
LINE
  8
1-2
  6
CONTINUOUS
 62
    3
 10
761.86613
 20
2249.8635
 11
762.23012
 21
2249.4456
  0
LINE
  8
1-2
  6
CONTINUOUS
 62
    3
 10
762.23012
 20
2249.4456
 11
762.62169
 21
2249.0682
  0
LINE
  8
1-2
  6
CONTINUOUS
 62
    3
 10
762.62169
 20
2249.0682
 11
763.03937
 21
2248.7314
  0
LINE
  8
1-2
  6
CONTINUOUS
 62
    3
 10
763.03937
 20
2248.7314
 11
763.48179
 21
2248.434
  0
LINE
  8
1-2
  6
CONTINUOUS
 62
    3
 10
763.48179
 20
2248.434
 11
763.94747
 21
2248.1767
  0
LINE
  8
1-2
  6
CONTINUOUS
 62
    3
 10
763.94747
 20
2248.1767
 11
764.43493
 21
2247.9582
  0
LINE
  8
1-2
  6
CONTINUOUS
 62
    3
 10
764.43493
 20
2247.9582
 11
764.94255
 21
2247.7788
  0
LINE
  8
1-2
  6
CONTINUOUS
 62
    3
 10
764.94255
 20
2247.7788
 11
765.46923
 21
2247.6378
  0
LINE
  8
1-2
  6
CONTINUOUS
 62
    3
 10
791.86364
 20
2253.24
 11
792.11701
 21
2252.5403
  0
LINE
  8
1-2
  6
CONTINUOUS
 62
    3
 10
792.11701
 20
2252.5403
 11
792.4137
 21
2251.8915
  0
LINE
  8
1-2
  6
CONTINUOUS
 62
    3
 10
792.4137
 20
2251.8915
 11
792.75021
 21
2251.2937
  0
LINE
  8
1-2
  6
CONTINUOUS
 62
    3
 10
792.75021
 20
2251.2937
 11
793.12311
 21
2250.7476
  0
LINE
  8
1-2
  6
CONTINUOUS
 62
    3
 10
793.12311
 20
2250.7476
 11
793.52841
 21
2250.2527
  0
LINE
  8
1-2
  6
CONTINUOUS
 62
    3
 10
793.52841
 20
2250.2527
 11
793.96254
 21
2249.8093
  0
LINE
  8
1-2
  6
CONTINUOUS
 62
    3
 10
793.96254
 20
2249.8093
 11
794.42167
 21
2249.4171
  0
LINE
  8
1-2
  6
CONTINUOUS
 62
    3
 10
794.42167
 20
2249.4171
 11
794.9017
 21
2249.0749
  0
LINE
  8
1-2
  6
CONTINUOUS
 62
    3
 10
794.9017
 20
2249.0749
 11
795.39893
 21
2248.7829
  0
LINE
  8
1-2
  6
CONTINUOUS
 62
    3
 10
795.39893
 20
2248.7829
 11
795.90878
 21
2248.5397
  0
LINE
  8
1-2
  6
CONTINUOUS
 62
    3
 10
795.90878
 20
2248.5397
 11
796.42742
 21
2248.3444
  0
LINE
  8
1-2
  6
CONTINUOUS
 62
    3
 10
796.42742
 20
2248.3444
 11
796.95013
 21
2248.1957
  0
LINE
  8
1-2
  6
CONTINUOUS
 62
    3
 10
796.95013
 20
2248.1957
 11
797.4726
 21
2248.0926
  0
LINE
  8
1-2
  6
CONTINUOUS
 62
    3
 10
797.4726
 20
2248.0926
 11
797.99049
 21
2248.0327
  0
LINE
  8
1-2
  6
CONTINUOUS
 62
    3
 10
797.99049
 20
2248.0327
 11
798.49886
 21
2248.0151
  0
LINE
  8
1-2
  6
CONTINUOUS
 62
    3
 10
798.49886
 20
2248.0151
 11
798.99312
 21
2248.0369
  0
LINE
  8
1-2
  6
CONTINUOUS
 62
    3
 10
798.99312
 20
2248.0369
 11
799.4687
 21
2248.0963
  0
LINE
  8
1-2
  6
CONTINUOUS
 62
    3
 10
799.4687
 20
2248.0963
 11
799.92028
 21
2248.1915
  0
LINE
  8
1-2
  6
CONTINUOUS
 62
    3
 10
799.92028
 20
2248.1915
 11
800.3429
 21
2248.3195
  0
LINE
  8
1-2
  6
CONTINUOUS
 62
    3
 10
716.6345
 20
2253.24
 11
708.33302
 21
2253.24
  0
LINE
  8
1-2
  6
CONTINUOUS
 62
    3
 10
635.32577
 20
2169.9073
 11
716.6345
 21
2253.24
  0
LINE
  8
1-2
  6
CONTINUOUS
 62
    3
 10
721.99813
 20
2253.24
 11
641.99749
 21
2169.9073
  0
LINE
  8
1-2
  6
CONTINUOUS
 62
    3
 10
658.27124
 20
2169.9073
 11
735.08077
 21
2253.24
  0
LINE
  8
1-2
  6
CONTINUOUS
 62
    3
 10
735.08077
 20
2253.24
 11
721.99813
 21
2253.24
  0
LINE
  8
1-2
  6
CONTINUOUS
 62
    3
 10
742.7686
 20
2253.24
 11
667.83392
 21
2169.9073
  0
LINE
  8
1-2
  6
CONTINUOUS
 62
    3
 10
760.34426
 20
2253.24
 11
742.7686
 21
2253.24
  0
LINE
  8
1-2
  6
CONTINUOUS
 62
    3
 10
689.69647
 20
2169.9073
 11
760.34426
 21
2253.24
  0
LINE
  8
1-2
  6
CONTINUOUS
 62
    3
 10
770.18989
 20
2253.24
 11
701.94338
 21
2169.9073
  0
LINE
  8
1-2
  6
CONTINUOUS
 62
    3
 10
791.87774
 20
2253.24
 11
770.18989
 21
2253.24
  0
LINE
  8
1-2
  6
CONTINUOUS
 62
    3
 10
728.92113
 20
2169.9073
 11
791.87774
 21
2253.24
  0
LINE
  8
1-2
  6
CONTINUOUS
 62
    3
 10
803.668
 20
2253.24
 11
743.58701
 21
2169.9073
  0
LINE
  8
1-2
  6
CONTINUOUS
 62
    3
 10
828.99891
 20
2253.24
 11
803.668
 21
2253.24
  0
LINE
  8
1-2
  6
CONTINUOUS
 62
    3
 10
775.09625
 20
2169.9073
 11
828.99891
 21
2253.24
  0
LINE
  8
1-2
  6
CONTINUOUS
 62
    3
 10
842.47869
 20
2253.24
 11
791.86364
 21
2169.9073
  0
LINE
  8
1-2
  6
CONTINUOUS
 62
    3
 10
870.90409
 20
2253.24
 11
842.47869
 21
2253.24
  0
LINE
  8
1-2
  6
CONTINUOUS
 62
    3
 10
827.22217
 20
2169.9073
 11
870.90409
 21
2253.24
  0
LINE
  8
1-2
  6
CONTINUOUS
 62
    3
 10
885.78141
 20
2253.24
 11
845.72807
 21
2169.9073
  0
LINE
  8
1-2
  6
CONTINUOUS
 62
    3
 10
916.68615
 20
2253.24
 11
885.78141
 21
2253.24
  0
LINE
  8
1-2
  6
CONTINUOUS
 62
    3
 10
884.17057
 20
2169.9073
 11
916.68615
 21
2253.24
  0
LINE
  8
1-2
  6
CONTINUOUS
 62
    3
 10
904.01426
 20
2169.9073
 11
932.63909
 21
2253.24
  0
LINE
  8
1-2
  6
CONTINUOUS
 62
    3
 10
965.35397
 20
2253.24
 11
932.63909
 21
2253.24
  0
LINE
  8
1-2
  6
CONTINUOUS
 62
    3
 10
965.35397
 20
2253.24
 11
944.70858
 21
2169.9073
  0
LINE
  8
1-2
  6
CONTINUOUS
 62
    3
 10
965.46087
 20
2169.9073
 11
982.03736
 21
2253.24
  0
LINE
  8
1-2
  6
CONTINUOUS
 62
    3
 10
1015.8543
 20
2253.24
 11
982.03736
 21
2253.24
  0
LINE
  8
1-2
  6
CONTINUOUS
 62
    3
 10
1015.8543
 20
2253.24
 11
1007.526
 21
2169.9073
  0
LINE
  8
1-2
  6
CONTINUOUS
 62
    3
 10
1032.9065
 20
2253.24
 11
1028.7374
 21
2169.9073
  0
LINE
  8
1-2
  6
CONTINUOUS
 62
    3
 10
1050
 20
2253.24
 11
1032.9065
 21
2253.24
  0
LINE
  8
1-2
  6
CONTINUOUS
 62
    3
 10
1383.3658
 20
2253.24
 11
1383.2643
 21
2252.4826
  0
LINE
  8
1-2
  6
CONTINUOUS
 62
    3
 10
1383.2643
 20
2252.4826
 11
1383.1567
 21
2251.79
  0
LINE
  8
1-2
  6
CONTINUOUS
 62
    3
 10
1383.1567
 20
2251.79
 11
1383.0439
 21
2251.1628
  0
LINE
  8
1-2
  6
CONTINUOUS
 62
    3
 10
1383.0439
 20
2251.1628
 11
1382.9246
 21
2250.6008
  0
LINE
  8
1-2
  6
CONTINUOUS
 62
    3
 10
1382.9246
 20
2250.6008
 11
1382.7997
 21
2250.1047
  0
LINE
  8
1-2
  6
CONTINUOUS
 62
    3
 10
1382.7997
 20
2250.1047
 11
1382.6688
 21
2249.6737
  0
LINE
  8
1-2
  6
CONTINUOUS
 62
    3
 10
1382.6688
 20
2249.6737
 11
1382.5319
 21
2249.3082
  0
LINE
  8
1-2
  6
CONTINUOUS
 62
    3
 10
1382.5319
 20
2249.3082
 11
1382.3894
 21
2249.0081
  0
LINE
  8
1-2
  6
CONTINUOUS
 62
    3
 10
1382.3894
 20
2249.0081
 11
1382.2409
 21
2248.7738
  0
LINE
  8
1-2
  6
CONTINUOUS
 62
    3
 10
1364.9192
 20
2253.24
 11
1364.8632
 21
2252.64
  0
LINE
  8
1-2
  6
CONTINUOUS
 62
    3
 10
1364.8632
 20
2252.64
 11
1364.7704
 21
2252.0726
  0
LINE
  8
1-2
  6
CONTINUOUS
 62
    3
 10
1364.7704
 20
2252.0726
 11
1364.645
 21
2251.5377
  0
LINE
  8
1-2
  6
CONTINUOUS
 62
    3
 10
1364.645
 20
2251.5377
 11
1364.4908
 21
2251.0358
  0
LINE
  8
1-2
  6
CONTINUOUS
 62
    3
 10
1364.4908
 20
2251.0358
 11
1364.3105
 21
2250.5669
  0
LINE
  8
1-2
  6
CONTINUOUS
 62
    3
 10
1364.3105
 20
2250.5669
 11
1364.1085
 21
2250.1319
  0
LINE
  8
1-2
  6
CONTINUOUS
 62
    3
 10
1364.1085
 20
2250.1319
 11
1363.8883
 21
2249.7299
  0
LINE
  8
1-2
  6
CONTINUOUS
 62
    3
 10
1363.8883
 20
2249.7299
 11
1363.6533
 21
2249.3612
  0
LINE
  8
1-2
  6
CONTINUOUS
 62
    3
 10
1363.6533
 20
2249.3612
 11
1363.4071
 21
2249.0261
  0
LINE
  8
1-2
  6
CONTINUOUS
 62
    3
 10
1363.4071
 20
2249.0261
 11
1363.1534
 21
2248.7253
  0
LINE
  8
1-2
  6
CONTINUOUS
 62
    3
 10
1363.1534
 20
2248.7253
 11
1362.8953
 21
2248.4588
  0
LINE
  8
1-2
  6
CONTINUOUS
 62
    3
 10
1362.8953
 20
2248.4588
 11
1362.6375
 21
2248.2262
  0
LINE
  8
1-2
  6
CONTINUOUS
 62
    3
 10
1362.6375
 20
2248.2262
 11
1362.3827
 21
2248.0282
  0
LINE
  8
1-2
  6
CONTINUOUS
 62
    3
 10
1362.3827
 20
2248.0282
 11
1362.1345
 21
2247.8649
  0
LINE
  8
1-2
  6
CONTINUOUS
 62
    3
 10
1339.6558
 20
2253.24
 11
1339.4883
 21
2252.572
  0
LINE
  8
1-2
  6
CONTINUOUS
 62
    3
 10
1339.4883
 20
2252.572
 11
1339.2844
 21
2251.9469
  0
LINE
  8
1-2
  6
CONTINUOUS
 62
    3
 10
1339.2844
 20
2251.9469
 11
1339.0454
 21
2251.3637
  0
LINE
  8
1-2
  6
CONTINUOUS
 62
    3
 10
1339.0454
 20
2251.3637
 11
1338.7732
 21
2250.8223
  0
LINE
  8
1-2
  6
CONTINUOUS
 62
    3
 10
1338.7732
 20
2250.8223
 11
1338.4688
 21
2250.322
  0
LINE
  8
1-2
  6
CONTINUOUS
 62
    3
 10
1338.4688
 20
2250.322
 11
1338.1338
 21
2249.8635
  0
LINE
  8
1-2
  6
CONTINUOUS
 62
    3
 10
1338.1338
 20
2249.8635
 11
1337.7701
 21
2249.4456
  0
LINE
  8
1-2
  6
CONTINUOUS
 62
    3
 10
1337.7701
 20
2249.4456
 11
1337.3784
 21
2249.0682
  0
LINE
  8
1-2
  6
CONTINUOUS
 62
    3
 10
1337.3784
 20
2249.0682
 11
1336.9607
 21
2248.7314
  0
LINE
  8
1-2
  6
CONTINUOUS
 62
    3
 10
1336.9607
 20
2248.7314
 11
1336.5183
 21
2248.434
  0
LINE
  8
1-2
  6
CONTINUOUS
 62
    3
 10
1336.5183
 20
2248.434
 11
1336.0526
 21
2248.1767
  0
LINE
  8
1-2
  6
CONTINUOUS
 62
    3
 10
1336.0526
 20
2248.1767
 11
1335.5651
 21
2247.9582
  0
LINE
  8
1-2
  6
CONTINUOUS
 62
    3
 10
1335.5651
 20
2247.9582
 11
1335.0574
 21
2247.7788
  0
LINE
  8
1-2
  6
CONTINUOUS
 62
    3
 10
1335.0574
 20
2247.7788
 11
1334.5308
 21
2247.6378
  0
LINE
  8
1-2
  6
CONTINUOUS
 62
    3
 10
1308.1364
 20
2253.24
 11
1307.883
 21
2252.5403
  0
LINE
  8
1-2
  6
CONTINUOUS
 62
    3
 10
1307.883
 20
2252.5403
 11
1307.5864
 21
2251.8915
  0
LINE
  8
1-2
  6
CONTINUOUS
 62
    3
 10
1307.5864
 20
2251.8915
 11
1307.2498
 21
2251.2937
  0
LINE
  8
1-2
  6
CONTINUOUS
 62
    3
 10
1307.2498
 20
2251.2937
 11
1306.8769
 21
2250.7476
  0
LINE
  8
1-2
  6
CONTINUOUS
 62
    3
 10
1306.8769
 20
2250.7476
 11
1306.4716
 21
2250.2527
  0
LINE
  8
1-2
  6
CONTINUOUS
 62
    3
 10
1306.4716
 20
2250.2527
 11
1306.0376
 21
2249.8093
  0
LINE
  8
1-2
  6
CONTINUOUS
 62
    3
 10
1306.0376
 20
2249.8093
 11
1305.5784
 21
2249.4171
  0
LINE
  8
1-2
  6
CONTINUOUS
 62
    3
 10
1305.5784
 20
2249.4171
 11
1305.0981
 21
2249.0749
  0
LINE
  8
1-2
  6
CONTINUOUS
 62
    3
 10
1305.0981
 20
2249.0749
 11
1304.601
 21
2248.7829
  0
LINE
  8
1-2
  6
CONTINUOUS
 62
    3
 10
1304.601
 20
2248.7829
 11
1304.091
 21
2248.5397
  0
LINE
  8
1-2
  6
CONTINUOUS
 62
    3
 10
1304.091
 20
2248.5397
 11
1303.5726
 21
2248.3444
  0
LINE
  8
1-2
  6
CONTINUOUS
 62
    3
 10
1303.5726
 20
2248.3444
 11
1303.0498
 21
2248.1957
  0
LINE
  8
1-2
  6
CONTINUOUS
 62
    3
 10
1303.0498
 20
2248.1957
 11
1302.5272
 21
2248.0926
  0
LINE
  8
1-2
  6
CONTINUOUS
 62
    3
 10
1302.5272
 20
2248.0926
 11
1302.0098
 21
2248.0327
  0
LINE
  8
1-2
  6
CONTINUOUS
 62
    3
 10
1302.0098
 20
2248.0327
 11
1301.5013
 21
2248.0151
  0
LINE
  8
1-2
  6
CONTINUOUS
 62
    3
 10
1301.5013
 20
2248.0151
 11
1301.0067
 21
2248.0369
  0
LINE
  8
1-2
  6
CONTINUOUS
 62
    3
 10
1301.0067
 20
2248.0369
 11
1300.5314
 21
2248.0963
  0
LINE
  8
1-2
  6
CONTINUOUS
 62
    3
 10
1300.5314
 20
2248.0963
 11
1300.0798
 21
2248.1915
  0
LINE
  8
1-2
  6
CONTINUOUS
 62
    3
 10
1300.0798
 20
2248.1915
 11
1299.6571
 21
2248.3195
  0
LINE
  8
1-2
  6
CONTINUOUS
 62
    3
 10
1383.3658
 20
2253.24
 11
1391.6672
 21
2253.24
  0
LINE
  8
1-2
  6
CONTINUOUS
 62
    3
 10
1464.6745
 20
2169.9073
 11
1383.3658
 21
2253.24
  0
LINE
  8
1-2
  6
CONTINUOUS
 62
    3
 10
1441.7289
 20
2169.9073
 11
1364.9192
 21
2253.24
  0
LINE
  8
1-2
  6
CONTINUOUS
 62
    3
 10
1364.9192
 20
2253.24
 11
1378.002
 21
2253.24
  0
LINE
  8
1-2
  6
CONTINUOUS
 62
    3
 10
1339.6558
 20
2253.24
 11
1357.2314
 21
2253.24
  0
LINE
  8
1-2
  6
CONTINUOUS
 62
    3
 10
1410.3036
 20
2169.9073
 11
1339.6558
 21
2253.24
  0
LINE
  8
1-2
  6
CONTINUOUS
 62
    3
 10
1308.1223
 20
2253.24
 11
1329.8102
 21
2253.24
  0
LINE
  8
1-2
  6
CONTINUOUS
 62
    3
 10
1007.526
 20
2053.2405
 11
1007.526
 21
1819.9076
  0
LINE
  8
1-2
  6
CONTINUOUS
 62
    3
 10
965.46099
 20
2053.2405
 11
965.46099
 21
1819.9076
  0
LINE
  8
1-2
  6
CONTINUOUS
 62
    3
 10
884.17057
 20
2053.2405
 11
884.17057
 21
1819.9076
  0
LINE
  8
1-2
  6
CONTINUOUS
 62
    3
 10
845.72807
 20
2053.2405
 11
845.72807
 21
1819.9076
  0
LINE
  8
1-2
  6
CONTINUOUS
 62
    3
 10
775.09625
 20
2053.2405
 11
775.09625
 21
1819.9076
  0
LINE
  8
1-2
  6
CONTINUOUS
 62
    3
 10
743.58701
 20
2053.2405
 11
743.58701
 21
1819.9076
  0
LINE
  8
1-2
  6
CONTINUOUS
 62
    3
 10
689.69647
 20
2053.2405
 11
689.69647
 21
1819.9076
  0
LINE
  8
1-2
  6
CONTINUOUS
 62
    3
 10
965.46099
 20
1819.9076
 11
884.17057
 21
1840.1083
  0
LINE
  8
1-2
  6
CONTINUOUS
 62
    3
 10
743.58701
 20
1819.9076
 11
689.69647
 21
1840.1083
  0
LINE
  8
1-2
  6
CONTINUOUS
 62
    3
 10
789.35447
 20
2053.2405
 11
789.35447
 21
1819.9076
  0
LINE
  8
1-2
  6
CONTINUOUS
 62
    3
 10
806.02103
 20
2053.2405
 11
806.02103
 21
1819.9076
  0
LINE
  8
1-2
  6
CONTINUOUS
 62
    3
 10
845.72807
 20
1819.9076
 11
806.02103
 21
1831.2638
  0
LINE
  8
1-2
  6
CONTINUOUS
 62
    3
 10
789.35447
 20
1836.0306
 11
775.09637
 21
1840.1083
  0
LINE
  8
1-2
  6
CONTINUOUS
 62
    3
 10
624.99986
 20
1719.907
 11
624.99986
 21
1803.2415
  0
LINE
  8
1-2
  6
CONTINUOUS
 62
    3
 10
624.99986
 20
1703.2403
 11
708.33302
 21
1619.9075
  0
LINE
  8
1-2
  6
CONTINUOUS
 62
    3
 10
975.96061
 20
1626.7955
 11
976.64651
 21
1626.6119
  0
LINE
  8
1-2
  6
CONTINUOUS
 62
    3
 10
976.64651
 20
1626.6119
 11
977.29084
 21
1626.3625
  0
LINE
  8
1-2
  6
CONTINUOUS
 62
    3
 10
977.29084
 20
1626.3625
 11
977.89398
 21
1626.0507
  0
LINE
  8
1-2
  6
CONTINUOUS
 62
    3
 10
977.89398
 20
1626.0507
 11
978.4569
 21
1625.6828
  0
LINE
  8
1-2
  6
CONTINUOUS
 62
    3
 10
978.4569
 20
1625.6828
 11
978.98024
 21
1625.2629
  0
LINE
  8
1-2
  6
CONTINUOUS
 62
    3
 10
978.98024
 20
1625.2629
 11
979.46485
 21
1624.7952
  0
LINE
  8
1-2
  6
CONTINUOUS
 62
    3
 10
979.46485
 20
1624.7952
 11
979.91148
 21
1624.2847
  0
LINE
  8
1-2
  6
CONTINUOUS
 62
    3
 10
979.91148
 20
1624.2847
 11
980.32099
 21
1623.7362
  0
LINE
  8
1-2
  6
CONTINUOUS
 62
    3
 10
980.32099
 20
1623.7362
 11
980.69376
 21
1623.1544
  0
LINE
  8
1-2
  6
CONTINUOUS
 62
    3
 10
980.69376
 20
1623.1544
 11
981.03102
 21
1622.5435
  0
LINE
  8
1-2
  6
CONTINUOUS
 62
    3
 10
981.03102
 20
1622.5435
 11
981.33314
 21
1621.9086
  0
LINE
  8
1-2
  6
CONTINUOUS
 62
    3
 10
981.33314
 20
1621.9086
 11
981.60112
 21
1621.2548
  0
LINE
  8
1-2
  6
CONTINUOUS
 62
    3
 10
981.60112
 20
1621.2548
 11
981.83557
 21
1620.5862
  0
LINE
  8
1-2
  6
CONTINUOUS
 62
    3
 10
981.83557
 20
1620.5862
 11
982.03736
 21
1619.9075
  0
LINE
  8
1-2
  6
CONTINUOUS
 62
    3
 10
972.19321
 20
1626.8326
 11
971.40004
 21
1626.5778
  0
LINE
  8
1-2
  6
CONTINUOUS
 62
    3
 10
971.40004
 20
1626.5778
 11
970.65587
 21
1626.2759
  0
LINE
  8
1-2
  6
CONTINUOUS
 62
    3
 10
970.65587
 20
1626.2759
 11
969.95994
 21
1625.9309
  0
LINE
  8
1-2
  6
CONTINUOUS
 62
    3
 10
969.95994
 20
1625.9309
 11
969.31215
 21
1625.5442
  0
LINE
  8
1-2
  6
CONTINUOUS
 62
    3
 10
969.31215
 20
1625.5442
 11
968.71173
 21
1625.1186
  0
LINE
  8
1-2
  6
CONTINUOUS
 62
    3
 10
968.71173
 20
1625.1186
 11
968.15809
 21
1624.6564
  0
LINE
  8
1-2
  6
CONTINUOUS
 62
    3
 10
968.15809
 20
1624.6564
 11
967.65096
 21
1624.159
  0
LINE
  8
1-2
  6
CONTINUOUS
 62
    3
 10
967.65096
 20
1624.159
 11
967.18961
 21
1623.6298
  0
LINE
  8
1-2
  6
CONTINUOUS
 62
    3
 10
967.18961
 20
1623.6298
 11
966.77341
 21
1623.0705
  0
LINE
  8
1-2
  6
CONTINUOUS
 62
    3
 10
966.77341
 20
1623.0705
 11
966.40213
 21
1622.4839
  0
LINE
  8
1-2
  6
CONTINUOUS
 62
    3
 10
966.40213
 20
1622.4839
 11
966.07501
 21
1621.8714
  0
LINE
  8
1-2
  6
CONTINUOUS
 62
    3
 10
966.07501
 20
1621.8714
 11
965.79169
 21
1621.2363
  0
LINE
  8
1-2
  6
CONTINUOUS
 62
    3
 10
965.79169
 20
1621.2363
 11
965.55155
 21
1620.5813
  0
LINE
  8
1-2
  6
CONTINUOUS
 62
    3
 10
965.55155
 20
1620.5813
 11
965.35397
 21
1619.9075
  0
LINE
  8
1-2
  6
CONTINUOUS
 62
    3
 10
932.63909
 20
1619.9075
 11
931.87079
 21
1621.0259
  0
LINE
  8
1-2
  6
CONTINUOUS
 62
    3
 10
931.87079
 20
1621.0259
 11
931.09358
 21
1622.0214
  0
LINE
  8
1-2
  6
CONTINUOUS
 62
    3
 10
931.09358
 20
1622.0214
 11
930.31055
 21
1622.8998
  0
LINE
  8
1-2
  6
CONTINUOUS
 62
    3
 10
930.31055
 20
1622.8998
 11
929.52469
 21
1623.6686
  0
LINE
  8
1-2
  6
CONTINUOUS
 62
    3
 10
929.52469
 20
1623.6686
 11
928.73919
 21
1624.3342
  0
LINE
  8
1-2
  6
CONTINUOUS
 62
    3
 10
928.73919
 20
1624.3342
 11
927.95691
 21
1624.9038
  0
LINE
  8
1-2
  6
CONTINUOUS
 62
    3
 10
927.95691
 20
1624.9038
 11
927.18094
 21
1625.3841
  0
LINE
  8
1-2
  6
CONTINUOUS
 62
    3
 10
927.18094
 20
1625.3841
 11
926.41437
 21
1625.7825
  0
LINE
  8
1-2
  6
CONTINUOUS
 62
    3
 10
926.41437
 20
1625.7825
 11
925.66029
 21
1626.1059
  0
LINE
  8
1-2
  6
CONTINUOUS
 62
    3
 10
925.66029
 20
1626.1059
 11
924.92169
 21
1626.36
  0
LINE
  8
1-2
  6
CONTINUOUS
 62
    3
 10
924.92169
 20
1626.36
 11
924.20164
 21
1626.5537
  0
LINE
  8
1-2
  6
CONTINUOUS
 62
    3
 10
924.20164
 20
1626.5537
 11
923.50336
 21
1626.6916
  0
LINE
  8
1-2
  6
CONTINUOUS
 62
    3
 10
923.50336
 20
1626.6916
 11
922.82958
 21
1626.7831
  0
LINE
  8
1-2
  6
CONTINUOUS
 62
    3
 10
922.82958
 20
1626.7831
 11
922.18364
 21
1626.8326
  0
LINE
  8
1-2
  6
CONTINUOUS
 62
    3
 10
916.68615
 20
1619.9075
 11
916.70916
 21
1620.7122
  0
LINE
  8
1-2
  6
CONTINUOUS
 62
    3
 10
916.70916
 20
1620.7122
 11
916.77869
 21
1621.4557
  0
LINE
  8
1-2
  6
CONTINUOUS
 62
    3
 10
916.77869
 20
1621.4557
 11
916.89709
 21
1622.1419
  0
LINE
  8
1-2
  6
CONTINUOUS
 62
    3
 10
916.89709
 20
1622.1419
 11
917.06733
 21
1622.7729
  0
LINE
  8
1-2
  6
CONTINUOUS
 62
    3
 10
917.06733
 20
1622.7729
 11
917.292
 21
1623.3536
  0
LINE
  8
1-2
  6
CONTINUOUS
 62
    3
 10
917.292
 20
1623.3536
 11
917.57334
 21
1623.8863
  0
LINE
  8
1-2
  6
CONTINUOUS
 62
    3
 10
917.57334
 20
1623.8863
 11
917.91419
 21
1624.3743
  0
LINE
  8
1-2
  6
CONTINUOUS
 62
    3
 10
917.91419
 20
1624.3743
 11
918.31715
 21
1624.8217
  0
LINE
  8
1-2
  6
CONTINUOUS
 62
    3
 10
918.31715
 20
1624.8217
 11
918.78468
 21
1625.2312
  0
LINE
  8
1-2
  6
CONTINUOUS
 62
    3
 10
918.78468
 20
1625.2312
 11
919.31952
 21
1625.6065
  0
LINE
  8
1-2
  6
CONTINUOUS
 62
    3
 10
919.31952
 20
1625.6065
 11
919.92439
 21
1625.9507
  0
LINE
  8
1-2
  6
CONTINUOUS
 62
    3
 10
919.92439
 20
1625.9507
 11
920.60151
 21
1626.268
  0
LINE
  8
1-2
  6
CONTINUOUS
 62
    3
 10
920.60151
 20
1626.268
 11
921.35385
 21
1626.5612
  0
LINE
  8
1-2
  6
CONTINUOUS
 62
    3
 10
921.35385
 20
1626.5612
 11
922.18364
 21
1626.8326
  0
LINE
  8
1-2
  6
CONTINUOUS
 62
    3
 10
870.90409
 20
1619.9075
 11
871.29591
 21
1620.8527
  0
LINE
  8
1-2
  6
CONTINUOUS
 62
    3
 10
871.29591
 20
1620.8527
 11
871.70393
 21
1621.7101
  0
LINE
  8
1-2
  6
CONTINUOUS
 62
    3
 10
871.70393
 20
1621.7101
 11
872.12792
 21
1622.4839
  0
LINE
  8
1-2
  6
CONTINUOUS
 62
    3
 10
872.12792
 20
1622.4839
 11
872.56738
 21
1623.1779
  0
LINE
  8
1-2
  6
CONTINUOUS
 62
    3
 10
872.56738
 20
1623.1779
 11
873.0218
 21
1623.7973
  0
LINE
  8
1-2
  6
CONTINUOUS
 62
    3
 10
873.0218
 20
1623.7973
 11
873.49095
 21
1624.3458
  0
LINE
  8
1-2
  6
CONTINUOUS
 62
    3
 10
873.49095
 20
1624.3458
 11
873.9742
 21
1624.8274
  0
LINE
  8
1-2
  6
CONTINUOUS
 62
    3
 10
873.9742
 20
1624.8274
 11
874.47143
 21
1625.2465
  0
LINE
  8
1-2
  6
CONTINUOUS
 62
    3
 10
874.47143
 20
1625.2465
 11
874.98189
 21
1625.6073
  0
LINE
  8
1-2
  6
CONTINUOUS
 62
    3
 10
874.98189
 20
1625.6073
 11
875.50548
 21
1625.9136
  0
LINE
  8
1-2
  6
CONTINUOUS
 62
    3
 10
875.50548
 20
1625.9136
 11
876.04168
 21
1626.1707
  0
LINE
  8
1-2
  6
CONTINUOUS
 62
    3
 10
876.04168
 20
1626.1707
 11
876.59025
 21
1626.3823
  0
LINE
  8
1-2
  6
CONTINUOUS
 62
    3
 10
876.59025
 20
1626.3823
 11
877.15033
 21
1626.5513
  0
LINE
  8
1-2
  6
CONTINUOUS
 62
    3
 10
877.15033
 20
1626.5513
 11
877.72204
 21
1626.6841
  0
LINE
  8
1-2
  6
CONTINUOUS
 62
    3
 10
878.97904
 20
1626.6841
 11
879.57512
 21
1626.5711
  0
LINE
  8
1-2
  6
CONTINUOUS
 62
    3
 10
879.57512
 20
1626.5711
 11
880.1665
 21
1626.3912
  0
LINE
  8
1-2
  6
CONTINUOUS
 62
    3
 10
880.1665
 20
1626.3912
 11
880.75293
 21
1626.1442
  0
LINE
  8
1-2
  6
CONTINUOUS
 62
    3
 10
880.75293
 20
1626.1442
 11
881.33479
 21
1625.8305
  0
LINE
  8
1-2
  6
CONTINUOUS
 62
    3
 10
881.33479
 20
1625.8305
 11
881.91145
 21
1625.4502
  0
LINE
  8
1-2
  6
CONTINUOUS
 62
    3
 10
881.91145
 20
1625.4502
 11
882.48353
 21
1625.0023
  0
LINE
  8
1-2
  6
CONTINUOUS
 62
    3
 10
882.48353
 20
1625.0023
 11
883.05066
 21
1624.4881
  0
LINE
  8
1-2
  6
CONTINUOUS
 62
    3
 10
883.05066
 20
1624.4881
 11
883.61309
 21
1623.9069
  0
LINE
  8
1-2
  6
CONTINUOUS
 62
    3
 10
883.61309
 20
1623.9069
 11
884.17057
 21
1623.2591
  0
LINE
  8
1-2
  6
CONTINUOUS
 62
    3
 10
828.99891
 20
1619.9075
 11
829.11236
 21
1620.6276
  0
LINE
  8
1-2
  6
CONTINUOUS
 62
    3
 10
829.11236
 20
1620.6276
 11
829.2732
 21
1621.2986
  0
LINE
  8
1-2
  6
CONTINUOUS
 62
    3
 10
829.2732
 20
1621.2986
 11
829.47796
 21
1621.9217
  0
LINE
  8
1-2
  6
CONTINUOUS
 62
    3
 10
829.47796
 20
1621.9217
 11
829.72267
 21
1622.499
  0
LINE
  8
1-2
  6
CONTINUOUS
 62
    3
 10
829.72267
 20
1622.499
 11
830.00389
 21
1623.0319
  0
LINE
  8
1-2
  6
CONTINUOUS
 62
    3
 10
830.00389
 20
1623.0319
 11
830.31826
 21
1623.5238
  0
LINE
  8
1-2
  6
CONTINUOUS
 62
    3
 10
830.31826
 20
1623.5238
 11
830.66257
 21
1623.9754
  0
LINE
  8
1-2
  6
CONTINUOUS
 62
    3
 10
830.66257
 20
1623.9754
 11
831.03398
 21
1624.3874
  0
LINE
  8
1-2
  6
CONTINUOUS
 62
    3
 10
831.03398
 20
1624.3874
 11
831.42976
 21
1624.7628
  0
LINE
  8
1-2
  6
CONTINUOUS
 62
    3
 10
831.42976
 20
1624.7628
 11
831.84694
 21
1625.1013
  0
LINE
  8
1-2
  6
CONTINUOUS
 62
    3
 10
831.84694
 20
1625.1013
 11
832.28355
 21
1625.4056
  0
LINE
  8
1-2
  6
CONTINUOUS
 62
    3
 10
832.28355
 20
1625.4056
 11
832.73711
 21
1625.6761
  0
LINE
  8
1-2
  6
CONTINUOUS
 62
    3
 10
832.73711
 20
1625.6761
 11
833.20564
 21
1625.9136
  0
LINE
  8
1-2
  6
CONTINUOUS
 62
    3
 10
833.20564
 20
1625.9136
 11
833.68728
 21
1626.119
  0
LINE
  8
1-2
  6
CONTINUOUS
 62
    3
 10
833.68728
 20
1626.119
 11
834.18043
 21
1626.2927
  0
LINE
  8
1-2
  6
CONTINUOUS
 62
    3
 10
834.18043
 20
1626.2927
 11
834.68372
 21
1626.4362
  0
LINE
  8
1-2
  6
CONTINUOUS
 62
    3
 10
834.68372
 20
1626.4362
 11
835.19542
 21
1626.5488
  0
LINE
  8
1-2
  6
CONTINUOUS
 62
    3
 10
835.19542
 20
1626.5488
 11
835.71492
 21
1626.6312
  0
LINE
  8
1-2
  6
CONTINUOUS
 62
    3
 10
835.71492
 20
1626.6312
 11
836.2411
 21
1626.6841
  0
LINE
  8
1-2
  6
CONTINUOUS
 62
    3
 10
836.37386
 20
1626.6782
 11
836.67017
 21
1626.649
  0
LINE
  8
1-2
  6
CONTINUOUS
 62
    3
 10
836.67017
 20
1626.649
 11
836.9614
 21
1626.6069
  0
LINE
  8
1-2
  6
CONTINUOUS
 62
    3
 10
836.9614
 20
1626.6069
 11
837.24732
 21
1626.552
  0
LINE
  8
1-2
  6
CONTINUOUS
 62
    3
 10
837.24732
 20
1626.552
 11
837.52829
 21
1626.4845
  0
LINE
  8
1-2
  6
CONTINUOUS
 62
    3
 10
837.52829
 20
1626.4845
 11
837.80418
 21
1626.404
  0
LINE
  8
1-2
  6
CONTINUOUS
 62
    3
 10
837.80418
 20
1626.404
 11
838.07501
 21
1626.3105
  0
LINE
  8
1-2
  6
CONTINUOUS
 62
    3
 10
838.07501
 20
1626.3105
 11
838.34063
 21
1626.2049
  0
LINE
  8
1-2
  6
CONTINUOUS
 62
    3
 10
838.34063
 20
1626.2049
 11
838.60119
 21
1626.0861
  0
LINE
  8
1-2
  6
CONTINUOUS
 62
    3
 10
838.60119
 20
1626.0861
 11
838.85654
 21
1625.9542
  0
LINE
  8
1-2
  6
CONTINUOUS
 62
    3
 10
716.6345
 20
1619.9075
 11
716.73595
 21
1620.6654
  0
LINE
  8
1-2
  6
CONTINUOUS
 62
    3
 10
716.73595
 20
1620.6654
 11
716.8431
 21
1621.358
  0
LINE
  8
1-2
  6
CONTINUOUS
 62
    3
 10
716.8431
 20
1621.358
 11
716.95642
 21
1621.9853
  0
LINE
  8
1-2
  6
CONTINUOUS
 62
    3
 10
716.95642
 20
1621.9853
 11
717.07556
 21
1622.547
  0
LINE
  8
1-2
  6
CONTINUOUS
 62
    3
 10
717.07556
 20
1622.547
 11
717.20052
 21
1623.0433
  0
LINE
  8
1-2
  6
CONTINUOUS
 62
    3
 10
717.20052
 20
1623.0433
 11
717.33142
 21
1623.4739
  0
LINE
  8
1-2
  6
CONTINUOUS
 62
    3
 10
717.33142
 20
1623.4739
 11
717.46813
 21
1623.8393
  0
LINE
  8
1-2
  6
CONTINUOUS
 62
    3
 10
717.46813
 20
1623.8393
 11
717.61078
 21
1624.1395
  0
LINE
  8
1-2
  6
CONTINUOUS
 62
    3
 10
717.61078
 20
1624.1395
 11
717.75924
 21
1624.3743
  0
LINE
  8
1-2
  6
CONTINUOUS
 62
    3
 10
735.08077
 20
1619.9075
 11
735.13694
 21
1620.5081
  0
LINE
  8
1-2
  6
CONTINUOUS
 62
    3
 10
735.13694
 20
1620.5081
 11
735.22973
 21
1621.0754
  0
LINE
  8
1-2
  6
CONTINUOUS
 62
    3
 10
735.22973
 20
1621.0754
 11
735.35494
 21
1621.6099
  0
LINE
  8
1-2
  6
CONTINUOUS
 62
    3
 10
735.35494
 20
1621.6099
 11
735.50934
 21
1622.1122
  0
LINE
  8
1-2
  6
CONTINUOUS
 62
    3
 10
735.50934
 20
1622.1122
 11
735.68935
 21
1622.5806
  0
LINE
  8
1-2
  6
CONTINUOUS
 62
    3
 10
735.68935
 20
1622.5806
 11
735.89151
 21
1623.0161
  0
LINE
  8
1-2
  6
CONTINUOUS
 62
    3
 10
735.89151
 20
1623.0161
 11
736.11185
 21
1623.4179
  0
LINE
  8
1-2
  6
CONTINUOUS
 62
    3
 10
736.11185
 20
1623.4179
 11
736.34692
 21
1623.7866
  0
LINE
  8
1-2
  6
CONTINUOUS
 62
    3
 10
736.34692
 20
1623.7866
 11
736.59312
 21
1624.1214
  0
LINE
  8
1-2
  6
CONTINUOUS
 62
    3
 10
736.59312
 20
1624.1214
 11
736.84687
 21
1624.4225
  0
LINE
  8
1-2
  6
CONTINUOUS
 62
    3
 10
736.84687
 20
1624.4225
 11
737.10458
 21
1624.6888
  0
LINE
  8
1-2
  6
CONTINUOUS
 62
    3
 10
737.10458
 20
1624.6888
 11
737.36266
 21
1624.9214
  0
LINE
  8
1-2
  6
CONTINUOUS
 62
    3
 10
737.36266
 20
1624.9214
 11
737.61753
 21
1625.1193
  0
LINE
  8
1-2
  6
CONTINUOUS
 62
    3
 10
737.61753
 20
1625.1193
 11
737.86558
 21
1625.2827
  0
LINE
  8
1-2
  6
CONTINUOUS
 62
    3
 10
760.34426
 20
1619.9075
 11
760.51177
 21
1620.5756
  0
LINE
  8
1-2
  6
CONTINUOUS
 62
    3
 10
760.51177
 20
1620.5756
 11
760.71579
 21
1621.2009
  0
LINE
  8
1-2
  6
CONTINUOUS
 62
    3
 10
760.71579
 20
1621.2009
 11
760.95469
 21
1621.7843
  0
LINE
  8
1-2
  6
CONTINUOUS
 62
    3
 10
760.95469
 20
1621.7843
 11
761.227
 21
1622.3257
  0
LINE
  8
1-2
  6
CONTINUOUS
 62
    3
 10
761.227
 20
1622.3257
 11
761.53135
 21
1622.8256
  0
LINE
  8
1-2
  6
CONTINUOUS
 62
    3
 10
761.53135
 20
1622.8256
 11
761.86613
 21
1623.2843
  0
LINE
  8
1-2
  6
CONTINUOUS
 62
    3
 10
761.86613
 20
1623.2843
 11
762.23012
 21
1623.7025
  0
LINE
  8
1-2
  6
CONTINUOUS
 62
    3
 10
762.23012
 20
1623.7025
 11
762.62169
 21
1624.0794
  0
LINE
  8
1-2
  6
CONTINUOUS
 62
    3
 10
762.62169
 20
1624.0794
 11
763.03937
 21
1624.4166
  0
LINE
  8
1-2
  6
CONTINUOUS
 62
    3
 10
763.03937
 20
1624.4166
 11
763.48179
 21
1624.714
  0
LINE
  8
1-2
  6
CONTINUOUS
 62
    3
 10
763.48179
 20
1624.714
 11
763.94747
 21
1624.9714
  0
LINE
  8
1-2
  6
CONTINUOUS
 62
    3
 10
763.94747
 20
1624.9714
 11
764.43493
 21
1625.1896
  0
LINE
  8
1-2
  6
CONTINUOUS
 62
    3
 10
764.43493
 20
1625.1896
 11
764.94255
 21
1625.3693
  0
LINE
  8
1-2
  6
CONTINUOUS
 62
    3
 10
764.94255
 20
1625.3693
 11
765.46923
 21
1625.5103
  0
LINE
  8
1-2
  6
CONTINUOUS
 62
    3
 10
791.86364
 20
1619.9075
 11
792.11701
 21
1620.6078
  0
LINE
  8
1-2
  6
CONTINUOUS
 62
    3
 10
792.11701
 20
1620.6078
 11
792.4137
 21
1621.2566
  0
LINE
  8
1-2
  6
CONTINUOUS
 62
    3
 10
792.4137
 20
1621.2566
 11
792.75021
 21
1621.8541
  0
LINE
  8
1-2
  6
CONTINUOUS
 62
    3
 10
792.75021
 20
1621.8541
 11
793.12311
 21
1622.4005
  0
LINE
  8
1-2
  6
CONTINUOUS
 62
    3
 10
793.12311
 20
1622.4005
 11
793.52841
 21
1622.8949
  0
LINE
  8
1-2
  6
CONTINUOUS
 62
    3
 10
793.52841
 20
1622.8949
 11
793.96254
 21
1623.3388
  0
LINE
  8
1-2
  6
CONTINUOUS
 62
    3
 10
793.96254
 20
1623.3388
 11
794.42167
 21
1623.731
  0
LINE
  8
1-2
  6
CONTINUOUS
 62
    3
 10
794.42167
 20
1623.731
 11
794.9017
 21
1624.0727
  0
LINE
  8
1-2
  6
CONTINUOUS
 62
    3
 10
794.9017
 20
1624.0727
 11
795.39893
 21
1624.3651
  0
LINE
  8
1-2
  6
CONTINUOUS
 62
    3
 10
795.39893
 20
1624.3651
 11
795.90878
 21
1624.6081
  0
LINE
  8
1-2
  6
CONTINUOUS
 62
    3
 10
795.90878
 20
1624.6081
 11
796.42742
 21
1624.8036
  0
LINE
  8
1-2
  6
CONTINUOUS
 62
    3
 10
796.42742
 20
1624.8036
 11
796.95013
 21
1624.9521
  0
LINE
  8
1-2
  6
CONTINUOUS
 62
    3
 10
796.95013
 20
1624.9521
 11
797.4726
 21
1625.0555
  0
LINE
  8
1-2
  6
CONTINUOUS
 62
    3
 10
797.4726
 20
1625.0555
 11
797.99049
 21
1625.1154
  0
LINE
  8
1-2
  6
CONTINUOUS
 62
    3
 10
797.99049
 20
1625.1154
 11
798.49886
 21
1625.1327
  0
LINE
  8
1-2
  6
CONTINUOUS
 62
    3
 10
798.49886
 20
1625.1327
 11
798.99312
 21
1625.1112
  0
LINE
  8
1-2
  6
CONTINUOUS
 62
    3
 10
798.99312
 20
1625.1112
 11
799.4687
 21
1625.0518
  0
LINE
  8
1-2
  6
CONTINUOUS
 62
    3
 10
799.4687
 20
1625.0518
 11
799.92028
 21
1624.9565
  0
LINE
  8
1-2
  6
CONTINUOUS
 62
    3
 10
799.92028
 20
1624.9565
 11
800.3429
 21
1624.8284
  0
LINE
  8
1-2
  6
CONTINUOUS
 62
    3
 10
716.6345
 20
1619.9075
 11
708.33302
 21
1619.9075
  0
LINE
  8
1-2
  6
CONTINUOUS
 62
    3
 10
635.32577
 20
1703.2408
 11
716.6345
 21
1619.9075
  0
LINE
  8
1-2
  6
CONTINUOUS
 62
    3
 10
721.99813
 20
1619.9075
 11
641.99749
 21
1703.2408
  0
LINE
  8
1-2
  6
CONTINUOUS
 62
    3
 10
658.27124
 20
1703.2408
 11
735.08077
 21
1619.9075
  0
LINE
  8
1-2
  6
CONTINUOUS
 62
    3
 10
735.08077
 20
1619.9075
 11
721.99813
 21
1619.9075
  0
LINE
  8
1-2
  6
CONTINUOUS
 62
    3
 10
742.7686
 20
1619.9075
 11
667.83392
 21
1703.2408
  0
LINE
  8
1-2
  6
CONTINUOUS
 62
    3
 10
760.34426
 20
1619.9075
 11
742.7686
 21
1619.9075
  0
LINE
  8
1-2
  6
CONTINUOUS
 62
    3
 10
689.69647
 20
1703.2408
 11
760.34426
 21
1619.9075
  0
LINE
  8
1-2
  6
CONTINUOUS
 62
    3
 10
770.18989
 20
1619.9075
 11
701.94338
 21
1703.2408
  0
LINE
  8
1-2
  6
CONTINUOUS
 62
    3
 10
791.87774
 20
1619.9075
 11
770.18989
 21
1619.9075
  0
LINE
  8
1-2
  6
CONTINUOUS
 62
    3
 10
728.92113
 20
1703.2408
 11
791.87774
 21
1619.9075
  0
LINE
  8
1-2
  6
CONTINUOUS
 62
    3
 10
803.668
 20
1619.9075
 11
743.58701
 21
1703.2408
  0
LINE
  8
1-2
  6
CONTINUOUS
 62
    3
 10
828.99891
 20
1619.9075
 11
803.668
 21
1619.9075
  0
LINE
  8
1-2
  6
CONTINUOUS
 62
    3
 10
775.09625
 20
1703.2408
 11
828.99891
 21
1619.9075
  0
LINE
  8
1-2
  6
CONTINUOUS
 62
    3
 10
842.47869
 20
1619.9075
 11
791.86364
 21
1703.2408
  0
LINE
  8
1-2
  6
CONTINUOUS
 62
    3
 10
870.90409
 20
1619.9075
 11
842.47869
 21
1619.9075
  0
LINE
  8
1-2
  6
CONTINUOUS
 62
    3
 10
885.78141
 20
1619.9075
 11
845.72807
 21
1703.2408
  0
LINE
  8
1-2
  6
CONTINUOUS
 62
    3
 10
916.68615
 20
1619.9075
 11
885.78141
 21
1619.9075
  0
LINE
  8
1-2
  6
CONTINUOUS
 62
    3
 10
884.17057
 20
1703.2408
 11
916.68615
 21
1619.9075
  0
LINE
  8
1-2
  6
CONTINUOUS
 62
    3
 10
904.01426
 20
1703.2408
 11
932.63909
 21
1619.9075
  0
LINE
  8
1-2
  6
CONTINUOUS
 62
    3
 10
965.35397
 20
1619.9075
 11
932.63909
 21
1619.9075
  0
LINE
  8
1-2
  6
CONTINUOUS
 62
    3
 10
965.35397
 20
1619.9075
 11
944.70858
 21
1703.2408
  0
LINE
  8
1-2
  6
CONTINUOUS
 62
    3
 10
965.46087
 20
1703.2408
 11
982.03736
 21
1619.9075
  0
LINE
  8
1-2
  6
CONTINUOUS
 62
    3
 10
1015.8543
 20
1619.9075
 11
982.03736
 21
1619.9075
  0
LINE
  8
1-2
  6
CONTINUOUS
 62
    3
 10
1015.8543
 20
1619.9075
 11
1007.526
 21
1703.2408
  0
LINE
  8
1-2
  6
CONTINUOUS
 62
    3
 10
1032.9065
 20
1619.9075
 11
1028.7374
 21
1703.2408
  0
LINE
  8
1-2
  6
CONTINUOUS
 62
    3
 10
827.22217
 20
1703.2408
 11
870.90421
 21
1619.9075
  0
LINE
  8
1-2
  6
CONTINUOUS
 62
    3
 10
878.27915
 20
1619.9075
 11
878.27915
 21
1494.9076
  0
LINE
  8
1-2
  6
CONTINUOUS
 62
    3
 10
844.94579
 20
1619.9075
 11
844.94579
 21
1494.9076
  0
LINE
  8
1-0
  6
CONTINUOUS
 62
    7
 10
266.66702
 20
1428.2406
 11
266.66702
 21
2378.2405
  0
LINE
  8
1-0
  6
CONTINUOUS
 62
    7
 10
624.99999
 20
2523.6806
 11
624.99999
 21
2302.5719
  0
LINE
  8
1-2
  6
CONTINUOUS
 62
    3
 10
1340.3162
 20
2210.6269
 11
1308.1223
 21
2253.24
  0
LINE
  8
1-2
  6
CONTINUOUS
 62
    3
 10
1050
 20
2161.5735
 11
1425.2784
 21
2161.5735
  0
LINE
  8
1-2
  6
CONTINUOUS
 62
    3
 10
1050
 20
2378.2405
 11
1425.2784
 21
2161.5735
  0
LINE
  8
1-2
  6
CONTINUOUS
 62
    3
 10
1425.2784
 20
2144.9077
 11
1050
 21
2144.9077
  0
LINE
  8
1-2
  6
CONTINUOUS
 62
    3
 10
1433.6112
 20
2153.2407
 11
1475.0014
 21
2153.2407
  0
LINE
  8
1-2
  6
CONTINUOUS
 62
    3
 10
1425.2784
 20
2069.907
 11
1475.0014
 21
2069.907
  0
LINE
  8
1-2
  6
CONTINUOUS
 62
    3
 10
1425.2784
 20
2053.2407
 11
1475.0014
 21
2053.2407
  0
LINE
  8
1-2
  6
CONTINUOUS
 62
    3
 10
624.99986
 20
2069.907
 11
1050
 21
2069.907
  0
LINE
  8
1-2
  6
CONTINUOUS
 62
    3
 10
624.99986
 20
2053.2407
 11
1050
 21
2053.2407
  0
LINE
  8
1-2
  6
CONTINUOUS
 62
    3
 10
1050
 20
1830.0078
 11
1007.526
 21
1840.1083
  0
LINE
  8
1-2
  6
CONTINUOUS
 62
    3
 10
1425.2784
 20
1728.2399
 11
1312.5013
 21
1728.2399
  0
LINE
  8
1-2
  6
CONTINUOUS
 62
    3
 10
1425.2784
 20
1819.9076
 11
1475.0027
 21
1819.9076
  0
LINE
  8
1-2
  6
CONTINUOUS
 62
    3
 10
1425.2784
 20
1803.2411
 11
1475.0027
 21
1803.2411
  0
LINE
  8
1-2
  6
CONTINUOUS
 62
    3
 10
1425.2784
 20
2144.9077
 11
1425.2784
 21
1728.2399
  0
LINE
  8
1-2
  6
CONTINUOUS
 62
    3
 10
625.0011
 20
1819.9076
 11
1050
 21
1819.9076
  0
LINE
  8
1-2
  6
CONTINUOUS
 62
    3
 10
625.0011
 20
1803.2411
 11
1050
 21
1803.2411
  0
LINE
  8
1-2
  6
CONTINUOUS
 62
    3
 10
624.99999
 20
1719.907
 11
1050
 21
1719.907
  0
LINE
  8
1-2
  6
CONTINUOUS
 62
    3
 10
624.99999
 20
1703.2403
 11
1050
 21
1703.2403
  0
LINE
  8
1-2
  6
CONTINUOUS
 62
    3
 10
1312.5013
 20
1719.907
 11
1475.0014
 21
1719.907
  0
LINE
  8
1-2
  6
CONTINUOUS
 62
    3
 10
624.99986
 20
1703.2408
 11
1050
 21
1703.2408
  0
LINE
  8
1-2
  6
CONTINUOUS
 62
    3
 10
1287.8397
 20
1747.1886
 11
1267.0341
 21
1780.5216
  0
LINE
  8
1-2
  6
CONTINUOUS
 62
    3
 10
1263.256
 20
1747.1886
 11
1244.6008
 21
1780.5216
  0
LINE
  8
1-2
  6
CONTINUOUS
 62
    3
 10
1238.7496
 20
1747.1886
 11
1222.2383
 21
1780.5216
  0
LINE
  8
1-2
  6
CONTINUOUS
 62
    3
 10
1214.3207
 20
1747.1886
 11
1199.9464
 21
1780.5216
  0
LINE
  8
1-2
  6
CONTINUOUS
 62
    3
 10
1189.9684
 20
1747.1886
 11
1177.7244
 21
1780.5216
  0
LINE
  8
1-2
  6
CONTINUOUS
 62
    3
 10
1165.6926
 20
1747.1886
 11
1155.5724
 21
1780.5216
  0
LINE
  8
1-2
  6
CONTINUOUS
 62
    3
 10
1141.493
 20
1747.1886
 11
1133.4895
 21
1780.5216
  0
LINE
  8
1-2
  6
CONTINUOUS
 62
    3
 10
1117.3688
 20
1747.1886
 11
1111.4757
 21
1780.5216
  0
LINE
  8
1-2
  6
CONTINUOUS
 62
    3
 10
1093.3205
 20
1747.1886
 11
1089.531
 21
1780.5216
  0
LINE
  8
1-2
  6
CONTINUOUS
 62
    3
 10
1067.6545
 20
1780.5216
 11
1069.347
 21
1747.1886
  0
LINE
  8
1-2
  6
CONTINUOUS
 62
    3
 10
1289.5383
 20
1780.5216
 11
1050
 21
1780.5216
  0
LINE
  8
1-2
  6
CONTINUOUS
 62
    3
 10
1312.5013
 20
1747.1886
 11
1050
 21
1747.1886
  0
LINE
  8
1-2
  6
CONTINUOUS
 62
    3
 10
1289.5383
 20
1780.5216
 11
1312.5013
 21
1747.1886
  0
LINE
  8
1-2
  6
CONTINUOUS
 62
    3
 10
1296.3323
 20
2253.24
 11
1296.3501
 21
2252.7971
  0
LINE
  8
1-2
  6
CONTINUOUS
 62
    3
 10
1296.3501
 20
2252.7971
 11
1296.4065
 21
2252.3527
  0
LINE
  8
1-2
  6
CONTINUOUS
 62
    3
 10
1296.4065
 20
2252.3527
 11
1296.5001
 21
2251.9101
  0
LINE
  8
1-2
  6
CONTINUOUS
 62
    3
 10
1296.5001
 20
2251.9101
 11
1296.6295
 21
2251.4738
  0
LINE
  8
1-2
  6
CONTINUOUS
 62
    3
 10
1296.6295
 20
2251.4738
 11
1296.794
 21
2251.0475
  0
LINE
  8
1-2
  6
CONTINUOUS
 62
    3
 10
1296.794
 20
2251.0475
 11
1296.9925
 21
2250.6355
  0
LINE
  8
1-2
  6
CONTINUOUS
 62
    3
 10
1296.9925
 20
2250.6355
 11
1297.2233
 21
2250.2411
  0
LINE
  8
1-2
  6
CONTINUOUS
 62
    3
 10
1297.2233
 20
2250.2411
 11
1297.4856
 21
2249.8684
  0
LINE
  8
1-2
  6
CONTINUOUS
 62
    3
 10
1297.4856
 20
2249.8684
 11
1297.7786
 21
2249.522
  0
LINE
  8
1-2
  6
CONTINUOUS
 62
    3
 10
1297.7786
 20
2249.522
 11
1298.1005
 21
2249.206
  0
LINE
  8
1-2
  6
CONTINUOUS
 62
    3
 10
1298.1005
 20
2249.206
 11
1298.4504
 21
2248.9232
  0
LINE
  8
1-2
  6
CONTINUOUS
 62
    3
 10
1298.4504
 20
2248.9232
 11
1298.8275
 21
2248.6785
  0
LINE
  8
1-2
  6
CONTINUOUS
 62
    3
 10
1298.8275
 20
2248.6785
 11
1299.2301
 21
2248.4761
  0
LINE
  8
1-2
  6
CONTINUOUS
 62
    3
 10
1299.2301
 20
2248.4761
 11
1299.6571
 21
2248.3195
  0
LINE
  8
1-2
  6
CONTINUOUS
 62
    3
 10
1329.8102
 20
2253.24
 11
1329.8223
 21
2252.7066
  0
LINE
  8
1-2
  6
CONTINUOUS
 62
    3
 10
1329.8223
 20
2252.7066
 11
1329.8782
 21
2252.1884
  0
LINE
  8
1-2
  6
CONTINUOUS
 62
    3
 10
1329.8782
 20
2252.1884
 11
1329.9737
 21
2251.6903
  0
LINE
  8
1-2
  6
CONTINUOUS
 62
    3
 10
1329.9737
 20
2251.6903
 11
1330.1049
 21
2251.2145
  0
LINE
  8
1-2
  6
CONTINUOUS
 62
    3
 10
1330.1049
 20
2251.2145
 11
1330.2677
 21
2250.7632
  0
LINE
  8
1-2
  6
CONTINUOUS
 62
    3
 10
1330.2677
 20
2250.7632
 11
1330.4592
 21
2250.3381
  0
LINE
  8
1-2
  6
CONTINUOUS
 62
    3
 10
1330.4592
 20
2250.3381
 11
1330.6752
 21
2249.9417
  0
LINE
  8
1-2
  6
CONTINUOUS
 62
    3
 10
1330.6752
 20
2249.9417
 11
1330.914
 21
2249.576
  0
LINE
  8
1-2
  6
CONTINUOUS
 62
    3
 10
1330.914
 20
2249.576
 11
1331.1723
 21
2249.2412
  0
LINE
  8
1-2
  6
CONTINUOUS
 62
    3
 10
1331.1723
 20
2249.2412
 11
1331.4485
 21
2248.9381
  0
LINE
  8
1-2
  6
CONTINUOUS
 62
    3
 10
1331.4485
 20
2248.9381
 11
1331.7404
 21
2248.6683
  0
LINE
  8
1-2
  6
CONTINUOUS
 62
    3
 10
1331.7404
 20
2248.6683
 11
1332.0465
 21
2248.4308
  0
LINE
  8
1-2
  6
CONTINUOUS
 62
    3
 10
1332.0465
 20
2248.4308
 11
1332.366
 21
2248.2262
  0
LINE
  8
1-2
  6
CONTINUOUS
 62
    3
 10
1332.366
 20
2248.2262
 11
1332.6975
 21
2248.0537
  0
LINE
  8
1-2
  6
CONTINUOUS
 62
    3
 10
1332.6975
 20
2248.0537
 11
1333.041
 21
2247.9127
  0
LINE
  8
1-2
  6
CONTINUOUS
 62
    3
 10
1333.041
 20
2247.9127
 11
1333.3953
 21
2247.8023
  0
LINE
  8
1-2
  6
CONTINUOUS
 62
    3
 10
1333.3953
 20
2247.8023
 11
1333.762
 21
2247.7206
  0
LINE
  8
1-2
  6
CONTINUOUS
 62
    3
 10
1333.762
 20
2247.7206
 11
1334.1401
 21
2247.6662
  0
LINE
  8
1-2
  6
CONTINUOUS
 62
    3
 10
1334.1401
 20
2247.6662
 11
1334.5308
 21
2247.6378
  0
LINE
  8
1-2
  6
CONTINUOUS
 62
    3
 10
1357.2314
 20
2253.24
 11
1357.3044
 21
2252.6021
  0
LINE
  8
1-2
  6
CONTINUOUS
 62
    3
 10
1357.3044
 20
2252.6021
 11
1357.4175
 21
2252.0115
  0
LINE
  8
1-2
  6
CONTINUOUS
 62
    3
 10
1357.4175
 20
2252.0115
 11
1357.5657
 21
2251.4676
  0
LINE
  8
1-2
  6
CONTINUOUS
 62
    3
 10
1357.5657
 20
2251.4676
 11
1357.7444
 21
2250.9685
  0
LINE
  8
1-2
  6
CONTINUOUS
 62
    3
 10
1357.7444
 20
2250.9685
 11
1357.9493
 21
2250.5133
  0
LINE
  8
1-2
  6
CONTINUOUS
 62
    3
 10
1357.9493
 20
2250.5133
 11
1358.1772
 21
2250.1
  0
LINE
  8
1-2
  6
CONTINUOUS
 62
    3
 10
1358.1772
 20
2250.1
 11
1358.4241
 21
2249.7269
  0
LINE
  8
1-2
  6
CONTINUOUS
 62
    3
 10
1358.4241
 20
2249.7269
 11
1358.6871
 21
2249.3936
  0
LINE
  8
1-2
  6
CONTINUOUS
 62
    3
 10
1358.6871
 20
2249.3936
 11
1358.9638
 21
2249.0979
  0
LINE
  8
1-2
  6
CONTINUOUS
 62
    3
 10
1358.9638
 20
2249.0979
 11
1359.2515
 21
2248.8381
  0
LINE
  8
1-2
  6
CONTINUOUS
 62
    3
 10
1359.2515
 20
2248.8381
 11
1359.5482
 21
2248.6129
  0
LINE
  8
1-2
  6
CONTINUOUS
 62
    3
 10
1359.5482
 20
2248.6129
 11
1359.8526
 21
2248.4209
  0
LINE
  8
1-2
  6
CONTINUOUS
 62
    3
 10
1359.8526
 20
2248.4209
 11
1360.1631
 21
2248.2601
  0
LINE
  8
1-2
  6
CONTINUOUS
 62
    3
 10
1360.1631
 20
2248.2601
 11
1360.4791
 21
2248.1292
  0
LINE
  8
1-2
  6
CONTINUOUS
 62
    3
 10
1360.4791
 20
2248.1292
 11
1360.8
 21
2248.0265
  0
LINE
  8
1-2
  6
CONTINUOUS
 62
    3
 10
1360.8
 20
2248.0265
 11
1361.1257
 21
2247.9508
  0
LINE
  8
1-2
  6
CONTINUOUS
 62
    3
 10
1361.1257
 20
2247.9508
 11
1361.456
 21
2247.8995
  0
LINE
  8
1-2
  6
CONTINUOUS
 62
    3
 10
1361.456
 20
2247.8995
 11
1361.792
 21
2247.8716
  0
LINE
  8
1-2
  6
CONTINUOUS
 62
    3
 10
1361.792
 20
2247.8716
 11
1362.1345
 21
2247.8649
  0
LINE
  8
1-2
  6
CONTINUOUS
 62
    3
 10
1378.002
 20
2253.24
 11
1378.0864
 21
2252.7179
  0
LINE
  8
1-2
  6
CONTINUOUS
 62
    3
 10
1378.0864
 20
2252.7179
 11
1378.1874
 21
2252.2352
  0
LINE
  8
1-2
  6
CONTINUOUS
 62
    3
 10
1378.1874
 20
2252.2352
 11
1378.3032
 21
2251.79
  0
LINE
  8
1-2
  6
CONTINUOUS
 62
    3
 10
1378.3032
 20
2251.79
 11
1378.4328
 21
2251.3818
  0
LINE
  8
1-2
  6
CONTINUOUS
 62
    3
 10
1378.4328
 20
2251.3818
 11
1378.5741
 21
2251.0081
  0
LINE
  8
1-2
  6
CONTINUOUS
 62
    3
 10
1378.5741
 20
2251.0081
 11
1378.7263
 21
2250.6667
  0
LINE
  8
1-2
  6
CONTINUOUS
 62
    3
 10
1378.7263
 20
2250.6667
 11
1378.8881
 21
2250.3579
  0
LINE
  8
1-2
  6
CONTINUOUS
 62
    3
 10
1378.8881
 20
2250.3579
 11
1379.0589
 21
2250.0788
  0
LINE
  8
1-2
  6
CONTINUOUS
 62
    3
 10
1379.0589
 20
2250.0788
 11
1379.2373
 21
2249.8288
  0
LINE
  8
1-2
  6
CONTINUOUS
 62
    3
 10
1379.2373
 20
2249.8288
 11
1379.4238
 21
2249.6052
  0
LINE
  8
1-2
  6
CONTINUOUS
 62
    3
 10
1379.4238
 20
2249.6052
 11
1379.6166
 21
2249.4097
  0
LINE
  8
1-2
  6
CONTINUOUS
 62
    3
 10
1379.6166
 20
2249.4097
 11
1379.8155
 21
2249.2382
  0
LINE
  8
1-2
  6
CONTINUOUS
 62
    3
 10
1379.8155
 20
2249.2382
 11
1380.0197
 21
2249.0915
  0
LINE
  8
1-2
  6
CONTINUOUS
 62
    3
 10
1380.0197
 20
2249.0915
 11
1380.2283
 21
2248.9677
  0
LINE
  8
1-2
  6
CONTINUOUS
 62
    3
 10
1380.2283
 20
2248.9677
 11
1380.4408
 21
2248.8658
  0
LINE
  8
1-2
  6
CONTINUOUS
 62
    3
 10
1380.4408
 20
2248.8658
 11
1380.6556
 21
2248.7854
  0
LINE
  8
1-2
  6
CONTINUOUS
 62
    3
 10
1380.6556
 20
2248.7854
 11
1380.8716
 21
2248.7253
  0
LINE
  8
1-2
  6
CONTINUOUS
 62
    3
 10
1380.8716
 20
2248.7253
 11
1381.0879
 21
2248.6852
  0
LINE
  8
1-2
  6
CONTINUOUS
 62
    3
 10
1381.0879
 20
2248.6852
 11
1381.3019
 21
2248.6624
  0
LINE
  8
1-2
  6
CONTINUOUS
 62
    3
 10
1381.3019
 20
2248.6624
 11
1381.512
 21
2248.6587
  0
LINE
  8
1-2
  6
CONTINUOUS
 62
    3
 10
1381.512
 20
2248.6587
 11
1381.7154
 21
2248.6716
  0
LINE
  8
1-2
  6
CONTINUOUS
 62
    3
 10
1381.7154
 20
2248.6716
 11
1381.9106
 21
2248.7008
  0
LINE
  8
1-2
  6
CONTINUOUS
 62
    3
 10
1381.9106
 20
2248.7008
 11
1382.0932
 21
2248.7453
  0
LINE
  8
1-2
  6
CONTINUOUS
 62
    3
 10
1382.0932
 20
2248.7453
 11
1382.2605
 21
2248.8044
  0
LINE
  8
1-2
  6
CONTINUOUS
 62
    3
 10
1410.845
 20
2169.9073
 11
1475.0014
 21
2169.9073
  0
LINE
  8
1-2
  6
CONTINUOUS
 62
    3
 10
1475.0002
 20
2169.9073
 11
1391.6672
 21
2253.24
  0
LINE
  8
1-2
  6
CONTINUOUS
 62
    3
 10
1379.4424
 20
2249.5408
 11
1455.4042
 21
2169.9073
  0
LINE
  8
1-2
  6
CONTINUOUS
 62
    3
 10
1358.8564
 20
2249.2191
 11
1429.718
 21
2169.9073
  0
LINE
  8
1-2
  6
CONTINUOUS
 62
    3
 10
624.99986
 20
2169.9073
 11
708.33302
 21
2253.24
  0
LINE
  8
1-2
  6
CONTINUOUS
 62
    3
 10
1050
 20
2378.2405
 11
833.49304
 21
2253.24
  0
LINE
  8
1-2
  6
CONTINUOUS
 62
    3
 10
1266.507
 20
2253.24
 11
1296.3323
 21
2253.24
  0
LINE
  8
1-2
  6
CONTINUOUS
 62
    3
 10
1297.5596
 20
2249.7115
 11
1315.1837
 21
2225.1368
  0
LINE
  8
1-2
  6
CONTINUOUS
 62
    3
 10
1331.2349
 20
2249.1226
 11
1382.2226
 21
2186.4323
  0
LINE
  8
1-2
  6
CONTINUOUS
 62
    3
 10
1383.3658
 20
1619.9075
 11
1383.2643
 21
1620.6654
  0
LINE
  8
1-2
  6
CONTINUOUS
 62
    3
 10
1383.2643
 20
1620.6654
 11
1383.1567
 21
1621.3583
  0
LINE
  8
1-2
  6
CONTINUOUS
 62
    3
 10
1383.1567
 20
1621.3583
 11
1383.0439
 21
1621.9853
  0
LINE
  8
1-2
  6
CONTINUOUS
 62
    3
 10
1383.0439
 20
1621.9853
 11
1382.9246
 21
1622.547
  0
LINE
  8
1-2
  6
CONTINUOUS
 62
    3
 10
1382.9246
 20
1622.547
 11
1382.7997
 21
1623.0433
  0
LINE
  8
1-2
  6
CONTINUOUS
 62
    3
 10
1382.7997
 20
1623.0433
 11
1382.6688
 21
1623.4739
  0
LINE
  8
1-2
  6
CONTINUOUS
 62
    3
 10
1382.6688
 20
1623.4739
 11
1382.5319
 21
1623.8398
  0
LINE
  8
1-2
  6
CONTINUOUS
 62
    3
 10
1382.5319
 20
1623.8398
 11
1382.3894
 21
1624.1395
  0
LINE
  8
1-2
  6
CONTINUOUS
 62
    3
 10
1382.3894
 20
1624.1395
 11
1382.2409
 21
1624.3745
  0
LINE
  8
1-2
  6
CONTINUOUS
 62
    3
 10
1364.9192
 20
1619.9075
 11
1364.8632
 21
1620.5081
  0
LINE
  8
1-2
  6
CONTINUOUS
 62
    3
 10
1364.8632
 20
1620.5081
 11
1364.7704
 21
1621.0754
  0
LINE
  8
1-2
  6
CONTINUOUS
 62
    3
 10
1364.7704
 20
1621.0754
 11
1364.645
 21
1621.6099
  0
LINE
  8
1-2
  6
CONTINUOUS
 62
    3
 10
1364.645
 20
1621.6099
 11
1364.4908
 21
1622.1122
  0
LINE
  8
1-2
  6
CONTINUOUS
 62
    3
 10
1364.4908
 20
1622.1122
 11
1364.3105
 21
1622.5806
  0
LINE
  8
1-2
  6
CONTINUOUS
 62
    3
 10
1364.3105
 20
1622.5806
 11
1364.1085
 21
1623.0161
  0
LINE
  8
1-2
  6
CONTINUOUS
 62
    3
 10
1364.1085
 20
1623.0161
 11
1363.8883
 21
1623.4182
  0
LINE
  8
1-2
  6
CONTINUOUS
 62
    3
 10
1363.8883
 20
1623.4182
 11
1363.6533
 21
1623.7866
  0
LINE
  8
1-2
  6
CONTINUOUS
 62
    3
 10
1363.6533
 20
1623.7866
 11
1363.4071
 21
1624.1219
  0
LINE
  8
1-2
  6
CONTINUOUS
 62
    3
 10
1363.4071
 20
1624.1219
 11
1363.1534
 21
1624.4225
  0
LINE
  8
1-2
  6
CONTINUOUS
 62
    3
 10
1363.1534
 20
1624.4225
 11
1362.8953
 21
1624.6888
  0
LINE
  8
1-2
  6
CONTINUOUS
 62
    3
 10
1362.8953
 20
1624.6888
 11
1362.6375
 21
1624.9214
  0
LINE
  8
1-2
  6
CONTINUOUS
 62
    3
 10
1362.6375
 20
1624.9214
 11
1362.3827
 21
1625.1193
  0
LINE
  8
1-2
  6
CONTINUOUS
 62
    3
 10
1362.3827
 20
1625.1193
 11
1362.1345
 21
1625.2827
  0
LINE
  8
1-2
  6
CONTINUOUS
 62
    3
 10
1339.6558
 20
1619.9075
 11
1339.4883
 21
1620.5756
  0
LINE
  8
1-2
  6
CONTINUOUS
 62
    3
 10
1339.4883
 20
1620.5756
 11
1339.2844
 21
1621.2009
  0
LINE
  8
1-2
  6
CONTINUOUS
 62
    3
 10
1339.2844
 20
1621.2009
 11
1339.0454
 21
1621.7843
  0
LINE
  8
1-2
  6
CONTINUOUS
 62
    3
 10
1339.0454
 20
1621.7843
 11
1338.7732
 21
1622.3257
  0
LINE
  8
1-2
  6
CONTINUOUS
 62
    3
 10
1338.7732
 20
1622.3257
 11
1338.4688
 21
1622.8256
  0
LINE
  8
1-2
  6
CONTINUOUS
 62
    3
 10
1338.4688
 20
1622.8256
 11
1338.1338
 21
1623.2846
  0
LINE
  8
1-2
  6
CONTINUOUS
 62
    3
 10
1338.1338
 20
1623.2846
 11
1337.7701
 21
1623.7025
  0
LINE
  8
1-2
  6
CONTINUOUS
 62
    3
 10
1337.7701
 20
1623.7025
 11
1337.3784
 21
1624.0798
  0
LINE
  8
1-2
  6
CONTINUOUS
 62
    3
 10
1337.3784
 20
1624.0798
 11
1336.9607
 21
1624.4166
  0
LINE
  8
1-2
  6
CONTINUOUS
 62
    3
 10
1336.9607
 20
1624.4166
 11
1336.5183
 21
1624.714
  0
LINE
  8
1-2
  6
CONTINUOUS
 62
    3
 10
1336.5183
 20
1624.714
 11
1336.0526
 21
1624.9714
  0
LINE
  8
1-2
  6
CONTINUOUS
 62
    3
 10
1336.0526
 20
1624.9714
 11
1335.5651
 21
1625.1899
  0
LINE
  8
1-2
  6
CONTINUOUS
 62
    3
 10
1335.5651
 20
1625.1899
 11
1335.0574
 21
1625.3693
  0
LINE
  8
1-2
  6
CONTINUOUS
 62
    3
 10
1335.0574
 20
1625.3693
 11
1334.5308
 21
1625.5103
  0
LINE
  8
1-2
  6
CONTINUOUS
 62
    3
 10
1383.3658
 20
1619.9075
 11
1391.6672
 21
1619.9075
  0
LINE
  8
1-2
  6
CONTINUOUS
 62
    3
 10
1464.6745
 20
1703.241
 11
1383.3658
 21
1619.9075
  0
LINE
  8
1-2
  6
CONTINUOUS
 62
    3
 10
1441.7289
 20
1703.241
 11
1364.9192
 21
1619.9075
  0
LINE
  8
1-2
  6
CONTINUOUS
 62
    3
 10
1364.9192
 20
1619.9075
 11
1378.002
 21
1619.9075
  0
LINE
  8
1-2
  6
CONTINUOUS
 62
    3
 10
1339.6558
 20
1619.9075
 11
1357.2314
 21
1619.9075
  0
LINE
  8
1-2
  6
CONTINUOUS
 62
    3
 10
1410.3036
 20
1703.241
 11
1339.6558
 21
1619.9075
  0
LINE
  8
1-2
  6
CONTINUOUS
 62
    3
 10
1329.8102
 20
1619.9075
 11
1329.8223
 21
1620.4415
  0
LINE
  8
1-2
  6
CONTINUOUS
 62
    3
 10
1329.8223
 20
1620.4415
 11
1329.8782
 21
1620.9591
  0
LINE
  8
1-2
  6
CONTINUOUS
 62
    3
 10
1329.8782
 20
1620.9591
 11
1329.9737
 21
1621.4572
  0
LINE
  8
1-2
  6
CONTINUOUS
 62
    3
 10
1329.9737
 20
1621.4572
 11
1330.1049
 21
1621.9336
  0
LINE
  8
1-2
  6
CONTINUOUS
 62
    3
 10
1330.1049
 20
1621.9336
 11
1330.2677
 21
1622.3851
  0
LINE
  8
1-2
  6
CONTINUOUS
 62
    3
 10
1330.2677
 20
1622.3851
 11
1330.4592
 21
1622.81
  0
LINE
  8
1-2
  6
CONTINUOUS
 62
    3
 10
1330.4592
 20
1622.81
 11
1330.6752
 21
1623.2059
  0
LINE
  8
1-2
  6
CONTINUOUS
 62
    3
 10
1330.6752
 20
1623.2059
 11
1330.914
 21
1623.5721
  0
LINE
  8
1-2
  6
CONTINUOUS
 62
    3
 10
1330.914
 20
1623.5721
 11
1331.1723
 21
1623.9069
  0
LINE
  8
1-2
  6
CONTINUOUS
 62
    3
 10
1331.1723
 20
1623.9069
 11
1331.4485
 21
1624.2098
  0
LINE
  8
1-2
  6
CONTINUOUS
 62
    3
 10
1331.4485
 20
1624.2098
 11
1331.7404
 21
1624.4797
  0
LINE
  8
1-2
  6
CONTINUOUS
 62
    3
 10
1331.7404
 20
1624.4797
 11
1332.0465
 21
1624.717
  0
LINE
  8
1-2
  6
CONTINUOUS
 62
    3
 10
1332.0465
 20
1624.717
 11
1332.366
 21
1624.9219
  0
LINE
  8
1-2
  6
CONTINUOUS
 62
    3
 10
1332.366
 20
1624.9219
 11
1332.6975
 21
1625.0946
  0
LINE
  8
1-2
  6
CONTINUOUS
 62
    3
 10
1332.6975
 20
1625.0946
 11
1333.041
 21
1625.2354
  0
LINE
  8
1-2
  6
CONTINUOUS
 62
    3
 10
1333.041
 20
1625.2354
 11
1333.3953
 21
1625.3457
  0
LINE
  8
1-2
  6
CONTINUOUS
 62
    3
 10
1333.3953
 20
1625.3457
 11
1333.762
 21
1625.4272
  0
LINE
  8
1-2
  6
CONTINUOUS
 62
    3
 10
1333.762
 20
1625.4272
 11
1334.1401
 21
1625.4816
  0
LINE
  8
1-2
  6
CONTINUOUS
 62
    3
 10
1334.1401
 20
1625.4816
 11
1334.5308
 21
1625.5103
  0
LINE
  8
1-2
  6
CONTINUOUS
 62
    3
 10
1357.2314
 20
1619.9075
 11
1357.3044
 21
1620.5459
  0
LINE
  8
1-2
  6
CONTINUOUS
 62
    3
 10
1357.3044
 20
1620.5459
 11
1357.4175
 21
1621.1365
  0
LINE
  8
1-2
  6
CONTINUOUS
 62
    3
 10
1357.4175
 20
1621.1365
 11
1357.5657
 21
1621.6799
  0
LINE
  8
1-2
  6
CONTINUOUS
 62
    3
 10
1357.5657
 20
1621.6799
 11
1357.7444
 21
1622.1795
  0
LINE
  8
1-2
  6
CONTINUOUS
 62
    3
 10
1357.7444
 20
1622.1795
 11
1357.9493
 21
1622.6348
  0
LINE
  8
1-2
  6
CONTINUOUS
 62
    3
 10
1357.9493
 20
1622.6348
 11
1358.1772
 21
1623.0483
  0
LINE
  8
1-2
  6
CONTINUOUS
 62
    3
 10
1358.1772
 20
1623.0483
 11
1358.4241
 21
1623.4212
  0
LINE
  8
1-2
  6
CONTINUOUS
 62
    3
 10
1358.4241
 20
1623.4212
 11
1358.6871
 21
1623.7545
  0
LINE
  8
1-2
  6
CONTINUOUS
 62
    3
 10
1358.6871
 20
1623.7545
 11
1358.9638
 21
1624.0502
  0
LINE
  8
1-2
  6
CONTINUOUS
 62
    3
 10
1358.9638
 20
1624.0502
 11
1359.2515
 21
1624.3095
  0
LINE
  8
1-2
  6
CONTINUOUS
 62
    3
 10
1359.2515
 20
1624.3095
 11
1359.5482
 21
1624.5351
  0
LINE
  8
1-2
  6
CONTINUOUS
 62
    3
 10
1359.5482
 20
1624.5351
 11
1359.8526
 21
1624.7271
  0
LINE
  8
1-2
  6
CONTINUOUS
 62
    3
 10
1359.8526
 20
1624.7271
 11
1360.1631
 21
1624.8877
  0
LINE
  8
1-2
  6
CONTINUOUS
 62
    3
 10
1360.1631
 20
1624.8877
 11
1360.4791
 21
1625.0189
  0
LINE
  8
1-2
  6
CONTINUOUS
 62
    3
 10
1360.4791
 20
1625.0189
 11
1360.8
 21
1625.1216
  0
LINE
  8
1-2
  6
CONTINUOUS
 62
    3
 10
1360.8
 20
1625.1216
 11
1361.1257
 21
1625.1973
  0
LINE
  8
1-2
  6
CONTINUOUS
 62
    3
 10
1361.1257
 20
1625.1973
 11
1361.456
 21
1625.2485
  0
LINE
  8
1-2
  6
CONTINUOUS
 62
    3
 10
1361.456
 20
1625.2485
 11
1361.792
 21
1625.2765
  0
LINE
  8
1-2
  6
CONTINUOUS
 62
    3
 10
1361.792
 20
1625.2765
 11
1362.1345
 21
1625.2827
  0
LINE
  8
1-2
  6
CONTINUOUS
 62
    3
 10
1378.002
 20
1619.9075
 11
1378.0864
 21
1620.4304
  0
LINE
  8
1-2
  6
CONTINUOUS
 62
    3
 10
1378.0864
 20
1620.4304
 11
1378.1874
 21
1620.9129
  0
LINE
  8
1-2
  6
CONTINUOUS
 62
    3
 10
1378.1874
 20
1620.9129
 11
1378.3032
 21
1621.3575
  0
LINE
  8
1-2
  6
CONTINUOUS
 62
    3
 10
1378.3032
 20
1621.3575
 11
1378.4328
 21
1621.7663
  0
LINE
  8
1-2
  6
CONTINUOUS
 62
    3
 10
1378.4328
 20
1621.7663
 11
1378.5741
 21
1622.1402
  0
LINE
  8
1-2
  6
CONTINUOUS
 62
    3
 10
1378.5741
 20
1622.1402
 11
1378.7263
 21
1622.4809
  0
LINE
  8
1-2
  6
CONTINUOUS
 62
    3
 10
1378.7263
 20
1622.4809
 11
1378.8881
 21
1622.7902
  0
LINE
  8
1-2
  6
CONTINUOUS
 62
    3
 10
1378.8881
 20
1622.7902
 11
1379.0589
 21
1623.0691
  0
LINE
  8
1-2
  6
CONTINUOUS
 62
    3
 10
1379.0589
 20
1623.0691
 11
1379.2373
 21
1623.3192
  0
LINE
  8
1-2
  6
CONTINUOUS
 62
    3
 10
1379.2373
 20
1623.3192
 11
1379.4238
 21
1623.5424
  0
LINE
  8
1-2
  6
CONTINUOUS
 62
    3
 10
1379.4238
 20
1623.5424
 11
1379.6166
 21
1623.7386
  0
LINE
  8
1-2
  6
CONTINUOUS
 62
    3
 10
1379.6166
 20
1623.7386
 11
1379.8155
 21
1623.9094
  0
LINE
  8
1-2
  6
CONTINUOUS
 62
    3
 10
1379.8155
 20
1623.9094
 11
1380.0197
 21
1624.0566
  0
LINE
  8
1-2
  6
CONTINUOUS
 62
    3
 10
1380.0197
 20
1624.0566
 11
1380.2283
 21
1624.1803
  0
LINE
  8
1-2
  6
CONTINUOUS
 62
    3
 10
1380.2283
 20
1624.1803
 11
1380.4408
 21
1624.2823
  0
LINE
  8
1-2
  6
CONTINUOUS
 62
    3
 10
1380.4408
 20
1624.2823
 11
1380.6556
 21
1624.3622
  0
LINE
  8
1-2
  6
CONTINUOUS
 62
    3
 10
1380.6556
 20
1624.3622
 11
1380.8716
 21
1624.4225
  0
LINE
  8
1-2
  6
CONTINUOUS
 62
    3
 10
1380.8716
 20
1624.4225
 11
1381.0879
 21
1624.4629
  0
LINE
  8
1-2
  6
CONTINUOUS
 62
    3
 10
1381.0879
 20
1624.4629
 11
1381.3019
 21
1624.4852
  0
LINE
  8
1-2
  6
CONTINUOUS
 62
    3
 10
1381.3019
 20
1624.4852
 11
1381.512
 21
1624.4894
  0
LINE
  8
1-2
  6
CONTINUOUS
 62
    3
 10
1381.512
 20
1624.4894
 11
1381.7154
 21
1624.476
  0
LINE
  8
1-2
  6
CONTINUOUS
 62
    3
 10
1381.7154
 20
1624.476
 11
1381.9106
 21
1624.4473
  0
LINE
  8
1-2
  6
CONTINUOUS
 62
    3
 10
1381.9106
 20
1624.4473
 11
1382.0932
 21
1624.4028
  0
LINE
  8
1-2
  6
CONTINUOUS
 62
    3
 10
1382.0932
 20
1624.4028
 11
1382.2605
 21
1624.3434
  0
LINE
  8
1-2
  6
CONTINUOUS
 62
    3
 10
1475.0002
 20
1703.2408
 11
1391.6672
 21
1619.9075
  0
LINE
  8
1-2
  6
CONTINUOUS
 62
    3
 10
1379.4424
 20
1623.6075
 11
1455.4042
 21
1703.241
  0
LINE
  8
1-2
  6
CONTINUOUS
 62
    3
 10
1358.8564
 20
1623.9292
 11
1429.718
 21
1703.241
  0
LINE
  8
1-2
  6
CONTINUOUS
 62
    3
 10
1312.5008
 20
1703.241
 11
1475.0014
 21
1703.241
  0
LINE
  8
1-2
  6
CONTINUOUS
 62
    3
 10
1331.5098
 20
1624.3639
 11
1395.6626
 21
1703.241
  0
LINE
  8
1-2
  6
CONTINUOUS
 62
    3
 10
1312.5003
 20
1644.2692
 11
1354.7924
 21
1703.241
  0
LINE
  8
1-2
  6
CONTINUOUS
 62
    3
 10
1371.0792
 20
1703.241
 11
1312.5
 21
1625.7026
  0
LINE
  8
1-2
  6
CONTINUOUS
 62
    3
 10
1312.5
 20
1619.9075
 11
1329.8102
 21
1619.9075
  0
LINE
  8
1-2
  6
CONTINUOUS
 62
    3
 10
1339.6558
 20
1619.9075
 11
1339.4883
 21
1620.5756
  0
LINE
  8
1-2
  6
CONTINUOUS
 62
    3
 10
1339.4883
 20
1620.5756
 11
1339.2844
 21
1621.2009
  0
LINE
  8
1-2
  6
CONTINUOUS
 62
    3
 10
1339.2844
 20
1621.2009
 11
1339.0454
 21
1621.7843
  0
LINE
  8
1-2
  6
CONTINUOUS
 62
    3
 10
1339.0454
 20
1621.7843
 11
1338.7732
 21
1622.3257
  0
LINE
  8
1-2
  6
CONTINUOUS
 62
    3
 10
1338.7732
 20
1622.3257
 11
1338.4688
 21
1622.8256
  0
LINE
  8
1-2
  6
CONTINUOUS
 62
    3
 10
1338.4688
 20
1622.8256
 11
1338.1338
 21
1623.2843
  0
LINE
  8
1-2
  6
CONTINUOUS
 62
    3
 10
1338.1338
 20
1623.2843
 11
1337.7701
 21
1623.7025
  0
LINE
  8
1-2
  6
CONTINUOUS
 62
    3
 10
1337.7701
 20
1623.7025
 11
1337.3784
 21
1624.0794
  0
LINE
  8
1-2
  6
CONTINUOUS
 62
    3
 10
1337.3784
 20
1624.0794
 11
1336.9607
 21
1624.4166
  0
LINE
  8
1-2
  6
CONTINUOUS
 62
    3
 10
1336.9607
 20
1624.4166
 11
1336.5183
 21
1624.714
  0
LINE
  8
1-2
  6
CONTINUOUS
 62
    3
 10
1336.5183
 20
1624.714
 11
1336.0526
 21
1624.9714
  0
LINE
  8
1-2
  6
CONTINUOUS
 62
    3
 10
1336.0526
 20
1624.9714
 11
1335.5651
 21
1625.1896
  0
LINE
  8
1-2
  6
CONTINUOUS
 62
    3
 10
1335.5651
 20
1625.1896
 11
1335.0574
 21
1625.3693
  0
LINE
  8
1-2
  6
CONTINUOUS
 62
    3
 10
1335.0574
 20
1625.3693
 11
1334.5308
 21
1625.5103
  0
LINE
  8
1-2
  6
CONTINUOUS
 62
    3
 10
1339.6558
 20
1619.9075
 11
1357.2314
 21
1619.9075
  0
LINE
  8
1-2
  6
CONTINUOUS
 62
    3
 10
1324.9037
 20
1703.2408
 11
1312.5008
 21
1684.0654
  0
LINE
  8
1-2
  6
CONTINUOUS
 62
    3
 10
1312.5013
 20
1747.188
 11
1312.5
 21
1609.1506
  0
LINE
  8
1-2
  6
CONTINUOUS
 62
    3
 10
1312.5
 20
1609.1506
 11
1312.4988
 21
1494.9076
  0
LINE
  8
1-2
  6
CONTINUOUS
 62
    3
 10
1312.5
 20
1619.9075
 11
1329.8102
 21
1619.9075
  0
LINE
  8
1-2
  6
CONTINUOUS
 62
    3
 10
1050
 20
1619.9075
 11
1032.9065
 21
1619.9075
  0
LINE
  8
1-2
  6
CONTINUOUS
 62
    3
 10
624.99986
 20
2169.9073
 11
1050
 21
2169.9073
  0
LINE
  8
1-2
  6
CONTINUOUS
 62
    3
 10
624.99986
 20
2153.2414
 11
1050
 21
2153.2414
  0
LINE
  8
1-2
  6
CONTINUOUS
 62
    3
 10
972.19321
 20
1626.8326
 11
972.59938
 21
1626.8494
  0
LINE
  8
1-2
  6
CONTINUOUS
 62
    3
 10
972.59938
 20
1626.8494
 11
973.00877
 21
1626.8613
  0
LINE
  8
1-2
  6
CONTINUOUS
 62
    3
 10
973.00877
 20
1626.8613
 11
973.42125
 21
1626.8675
  0
LINE
  8
1-2
  6
CONTINUOUS
 62
    3
 10
973.42125
 20
1626.8675
 11
973.83671
 21
1626.8687
  0
LINE
  8
1-2
  6
CONTINUOUS
 62
    3
 10
973.83671
 20
1626.8687
 11
974.25537
 21
1626.8648
  0
LINE
  8
1-2
  6
CONTINUOUS
 62
    3
 10
974.25537
 20
1626.8648
 11
974.67701
 21
1626.8556
  0
LINE
  8
1-2
  6
CONTINUOUS
 62
    3
 10
974.67701
 20
1626.8556
 11
975.10174
 21
1626.8408
  0
LINE
  8
1-2
  6
CONTINUOUS
 62
    3
 10
975.10174
 20
1626.8408
 11
975.52969
 21
1626.821
  0
LINE
  8
1-2
  6
CONTINUOUS
 62
    3
 10
975.52969
 20
1626.821
 11
975.96061
 21
1626.7955
  0
LINE
  8
1-2
  6
CONTINUOUS
 62
    3
 10
877.72204
 20
1626.6841
 11
877.85356
 21
1626.698
  0
LINE
  8
1-2
  6
CONTINUOUS
 62
    3
 10
877.85356
 20
1626.698
 11
877.98705
 21
1626.7079
  0
LINE
  8
1-2
  6
CONTINUOUS
 62
    3
 10
877.98705
 20
1626.7079
 11
878.12265
 21
1626.7151
  0
LINE
  8
1-2
  6
CONTINUOUS
 62
    3
 10
878.12265
 20
1626.7151
 11
878.26035
 21
1626.7183
  0
LINE
  8
1-2
  6
CONTINUOUS
 62
    3
 10
878.26035
 20
1626.7183
 11
878.3999
 21
1626.7183
  0
LINE
  8
1-2
  6
CONTINUOUS
 62
    3
 10
878.3999
 20
1626.7183
 11
878.54169
 21
1626.7151
  0
LINE
  8
1-2
  6
CONTINUOUS
 62
    3
 10
878.54169
 20
1626.7151
 11
878.68545
 21
1626.7079
  0
LINE
  8
1-2
  6
CONTINUOUS
 62
    3
 10
878.68545
 20
1626.7079
 11
878.83119
 21
1626.698
  0
LINE
  8
1-2
  6
CONTINUOUS
 62
    3
 10
878.83119
 20
1626.698
 11
878.97904
 21
1626.6841
  0
LINE
  8
1-2
  6
CONTINUOUS
 62
    3
 10
877.72204
 20
2246.4637
 11
877.87447
 21
2246.4528
  0
LINE
  8
1-2
  6
CONTINUOUS
 62
    3
 10
877.87447
 20
2246.4528
 11
878.02367
 21
2246.4446
  0
LINE
  8
1-2
  6
CONTINUOUS
 62
    3
 10
878.02367
 20
2246.4446
 11
878.16966
 21
2246.4392
  0
LINE
  8
1-2
  6
CONTINUOUS
 62
    3
 10
878.16966
 20
2246.4392
 11
878.31243
 21
2246.4364
  0
LINE
  8
1-2
  6
CONTINUOUS
 62
    3
 10
878.31243
 20
2246.4364
 11
878.45224
 21
2246.4364
  0
LINE
  8
1-2
  6
CONTINUOUS
 62
    3
 10
878.45224
 20
2246.4364
 11
878.58858
 21
2246.4392
  0
LINE
  8
1-2
  6
CONTINUOUS
 62
    3
 10
878.58858
 20
2246.4392
 11
878.72195
 21
2246.4446
  0
LINE
  8
1-2
  6
CONTINUOUS
 62
    3
 10
878.72195
 20
2246.4446
 11
878.8521
 21
2246.4528
  0
LINE
  8
1-2
  6
CONTINUOUS
 62
    3
 10
878.8521
 20
2246.4528
 11
878.97904
 21
2246.4637
  0
LINE
  8
1-2
  6
CONTINUOUS
 62
    3
 10
972.19321
 20
2246.3154
 11
972.60136
 21
2246.2904
  0
LINE
  8
1-2
  6
CONTINUOUS
 62
    3
 10
972.60136
 20
2246.2904
 11
973.01211
 21
2246.2731
  0
LINE
  8
1-2
  6
CONTINUOUS
 62
    3
 10
973.01211
 20
2246.2731
 11
973.42546
 21
2246.2622
  0
LINE
  8
1-2
  6
CONTINUOUS
 62
    3
 10
973.42546
 20
2246.2622
 11
973.84153
 21
2246.2595
  0
LINE
  8
1-2
  6
CONTINUOUS
 62
    3
 10
973.84153
 20
2246.2595
 11
974.2602
 21
2246.2635
  0
LINE
  8
1-2
  6
CONTINUOUS
 62
    3
 10
974.2602
 20
2246.2635
 11
974.68134
 21
2246.2746
  0
LINE
  8
1-2
  6
CONTINUOUS
 62
    3
 10
974.68134
 20
2246.2746
 11
975.10508
 21
2246.2937
  0
LINE
  8
1-2
  6
CONTINUOUS
 62
    3
 10
975.10508
 20
2246.2937
 11
975.53155
 21
2246.3191
  0
LINE
  8
1-2
  6
CONTINUOUS
 62
    3
 10
975.53155
 20
2246.3191
 11
975.96061
 21
2246.3523
  0
LINE
  8
1-2
  6
CONTINUOUS
 62
    3
 10
1374.2511
 20
1819.9076
 11
1336.3545
 21
1819.9076
  0
LINE
  8
1-2
  6
CONTINUOUS
 62
    3
 10
1374.2511
 20
2053.2407
 11
1374.2511
 21
1819.9076
  0
LINE
  8
1-2
  6
CONTINUOUS
 62
    3
 10
1374.2511
 20
2053.2407
 11
1336.3545
 21
2053.2407
  0
LINE
  8
1-2
  6
CONTINUOUS
 62
    3
 10
1285.3268
 20
1819.9076
 11
1247.4301
 21
1819.9076
  0
LINE
  8
1-2
  6
CONTINUOUS
 62
    3
 10
1285.3268
 20
2053.2407
 11
1285.3268
 21
1819.9076
  0
LINE
  8
1-2
  6
CONTINUOUS
 62
    3
 10
1285.3268
 20
2053.2407
 11
1247.4301
 21
2053.2407
  0
LINE
  8
1-2
  6
CONTINUOUS
 62
    3
 10
1196.4027
 20
1819.9076
 11
1158.5061
 21
1819.9076
  0
LINE
  8
1-2
  6
CONTINUOUS
 62
    3
 10
1196.4027
 20
2053.2407
 11
1196.4027
 21
1819.9076
  0
LINE
  8
1-2
  6
CONTINUOUS
 62
    3
 10
1196.4027
 20
2053.2407
 11
1158.5061
 21
2053.2407
  0
LINE
  8
1-0
  6
CONTINUOUS
 62
    7
 10
616.66671
 20
1171.7801
 11
1483.3335
 21
1171.7799
  0
LINE
  8
1-0
  6
CONTINUOUS
 62
    7
 10
497.7199
 20
1428.2406
 11
266.66702
 21
1428.2406
  0
LINE
  8
1-2
  6
CONTINUOUS
 62
    3
 10
616.66671
 20
1428.2411
 11
1483.3335
 21
1428.2411
  0
LINE
  8
1-2
  6
CONTINUOUS
 62
    3
 10
1483.3335
 20
1428.2411
 11
1483.3335
 21
1328.2408
  0
LINE
  8
1-2
  6
CONTINUOUS
 62
    3
 10
616.66671
 20
1328.241
 11
1483.3335
 21
1328.2408
  0
LINE
  8
1-2
  6
CONTINUOUS
 62
    3
 10
616.66671
 20
1428.2411
 11
616.66671
 21
1328.241
  0
LINE
  8
1-0
  6
CONTINUOUS
 62
    7
 10
266.66702
 20
1328.241
 11
266.66702
 21
1428.2411
  0
LINE
  8
1-0
  6
CONTINUOUS
 62
    7
 10
497.7199
 20
1328.241
 11
266.66702
 21
1328.241
  0
LINE
  8
1-0
  6
CONTINUOUS
 62
    7
 10
497.7199
 20
1428.2411
 11
266.66702
 21
1428.2411
  0
LINE
  8
1-0
  6
CONTINUOUS
 62
    7
 10
1483.3335
 20
1310.4179
 11
1483.3335
 21
1171.7799
  0
LINE
  8
1-0
  6
CONTINUOUS
 62
    7
 10
616.66671
 20
1171.7801
 11
616.66671
 21
1310.4179
  0
LINE
  8
1-0
  6
CENTER2
 62
    7
 10
1050
 20
2378.2405
 11
1050
 21
1232.4324
  0
ARC
  8
1-2
  6
CONTINUOUS
 62
    3
 10
787.50004
 20
1436.5739
 40
8.3329482
 50
90
 51
270
  0
ARC
  8
1-2
  6
CONTINUOUS
 62
    3
 10
787.4988
 20
1486.5746
 40
8.3329482
 50
90
 51
270
  0
ARC
  8
1-2
  6
CONTINUOUS
 62
    3
 10
1312.5
 20
1436.5736
 40
8.3329482
 50
270
 51
90
  0
ARC
  8
1-2
  6
CONTINUOUS
 62
    3
 10
1312.4988
 20
1486.5741
 40
8.3329482
 50
270
 51
90
  0
ARC
  8
1-2
  6
CONTINUOUS
 62
    3
 10
625.0011
 20
1811.5745
 40
8.3329482
 50
90
 51
270
  0
ARC
  8
1-2
  6
CONTINUOUS
 62
    3
 10
624.99999
 20
1711.5733
 40
8.3329482
 50
90
 51
270
  0
ARC
  8
1-2
  6
CONTINUOUS
 62
    3
 10
1475.0014
 20
1811.5745
 40
8.3329482
 50
270
 51
90
  0
ARC
  8
1-2
  6
CONTINUOUS
 62
    3
 10
1475.0002
 20
1711.5733
 40
8.3329482
 50
270
 51
90
  0
ARC
  8
1-2
  6
CONTINUOUS
 62
    3
 10
624.99986
 20
2161.5745
 40
8.3329482
 50
90
 51
270
  0
ARC
  8
1-2
  6
CONTINUOUS
 62
    3
 10
624.99986
 20
2061.5733
 40
8.3329482
 50
90
 51
270
  0
ARC
  8
1-2
  6
CONTINUOUS
 62
    3
 10
1475.0002
 20
2161.5745
 40
8.3329482
 50
270
 51
90
  0
ARC
  8
1-2
  6
CONTINUOUS
 62
    3
 10
1475.0002
 20
2061.5733
 40
8.3329482
 50
270
 51
90
  0
ARC
  8
1-2
  6
CONTINUOUS
 62
    3
 10
1024.3805
 20
2255.0085
 40
8.7075721
 50
191.71624
 51
348.28375
  0
CIRCLE
  8
1-2
  6
CONTINUOUS
 62
    3
 10
797.68775
 20
2077.5738
 40
5.0000003
  0
CIRCLE
  8
1-2
  6
CONTINUOUS
 62
    3
 10
797.68775
 20
2137.3046
 40
5.0000003
  0
CIRCLE
  8
1-2
  6
CONTINUOUS
 62
    3
 10
797.68775
 20
1795.5742
 40
5.0000003
  0
CIRCLE
  8
1-2
  6
CONTINUOUS
 62
    3
 10
797.68775
 20
1735.8429
 40
5.0000003
  0
ARC
  8
1-2
  6
CONTINUOUS
 62
    3
 10
1024.3805
 20
1618.1391
 40
8.7075721
 50
11.716247
 51
168.28375
  0
CIRCLE
  8
1-2
  6
CONTINUOUS
 62
    3
 10
861.61247
 20
1605.2331
 40
5.0000003
  0
CIRCLE
  8
1-2
  6
CONTINUOUS
 62
    3
 10
861.61247
 20
1508.9951
 40
5.0000003
  0
ARC
  8
1-2
  6
CONTINUOUS
 62
    3
 10
1425.2784
 20
2153.2407
 40
8.3329482
 50
270
 51
90
  0
ARC
  8
1-2
  6
CONTINUOUS
 62
    3
 10
1425.2784
 20
1719.907
 40
8.3329482
 50
359.99745
 51
90
  0
TEXT
  8
1-d
 10
254.99986
 20
37.49994
 40
25
 41
1
 50
0
  1
番
  0
TEXT
  8
1-d
 10
655.00021
 20
97.499924
 40
25
 41
1
 50
0
  1
承
  0
TEXT
  8
1-d
 10
655.00021
 20
37.49994
 40
25
 41
1
 50
0
  1
認
  0
TEXT
  8
1-d
 10
1020.0002
 20
177.49997
 40
25
 41
1
 50
0
  1
尺
  0
TEXT
  8
1-d
 10
1020.0002
 20
137.49996
 40
25
 41
1
 50
0
  1
度
  0
TEXT
  8
1-d
 10
855.00014
 20
97.499924
 40
25
 41
1
 50
0
  1
製
  0
TEXT
  8
1-d
 10
855.00014
 20
37.49994
 40
25
 41
1
 50
0
  1
図
  0
TEXT
  8
1-d
 10
1555.0002
 20
177.49997
 40
25
 41
1
 50
0
  1
日
  0
TEXT
  8
1-d
 10
1555.0002
 20
137.49996
 40
25
 41
1
 50
0
  1
付
  0
TEXT
  8
1-d
 10
1111.4262
 20
103.48221
 40
20
 41
1
 50
0
  1
株式
  0
TEXT
  8
1-d
 10
1111.4262
 20
81.851798
 40
20
 41
1
 50
0
  1
会社
  0
TEXT
  8
1-d
 10
1174.2245
 20
83.247297
 40
40
 41
1
 50
0
  1
スズキベンチレーター
  0
TEXT
  8
1-d
 10
1237.9179
 20
34.024276
 40
20
 41
1
 50
0
  1
TEL(054)296-7000  FAX(054)296-7001
  0
TEXT
  8
1-d
 10
254.99986
 20
97.499924
 40
25
 41
1
 50
0
  1
図
  0
TEXT
  8
1-d
 10
1084.3491
 20
150.10071
 40
40
 41
1
 50
0
  1
１／６
  0
TEXT
  8
1-0
 10
256.66705
 20
1881.9902
 40
30
 41
1
 50
90
  1
570
  0
TEXT
  8
1-0
 10
1006.4597
 20
2536.9187
 40
30
 41
1
 50
0
  1
510φ
  0
TEXT
  8
1-0
 10
256.66705
 20
1364.4911
 40
30
 41
1
 50
90
  1
60
  0
TEXT
  8
1-0
 10
989.61533
 20
1180.3304
 40
30
 41
1
 50
0
  1
520*520
  0
TEXT
  8
1-d
 10
245.33786
 20
2780.4054
 40
50
 41
1
 50
0
  1
ＡＳ－３００　自然回転  架台型断面
  0
TEXT
  8
1-d
 10
261.37484
 20
154.91192
 40
30
 41
1
 50
0
  1
ＡＳ－３００　自然回転  架台型断面
  0
TEXT
  8
1-d
 10
302.5895
 20
84.985422
 40
30
 41
1
 50
0
  1
30-A09b
  0
TEXT
  8
1-d
 10
1235.6794
 20
58.646024
 40
20
 41
1
 50
0
  1
〒421-2114　静岡市葵区安倍口新田１５２番地
  0
POINT
  8
1-0
 62
    2
 10
266.66702
 20
1428.2406
  0
POINT
  8
1-0
 62
    2
 10
266.66702
 20
2378.2405
  0
POINT
  8
1-0
 62
    2
 10
624.99999
 20
2523.6806
  0
POINT
  8
1-0
 62
    2
 10
1475.0014
 20
2523.6806
  0
POINT
  8
1-0
 62
    2
 10
266.66702
 20
1428.2406
  0
POINT
  8
1-0
 62
    2
 10
616.66671
 20
1171.7801
  0
POINT
  8
1-0
 62
    2
 10
1483.3335
 20
1171.7799
  0
POINT
  8
1-0
 62
    2
 10
266.66702
 20
1328.241
  0
POINT
  8
1-0
 62
    2
 10
266.66702
 20
1428.2411
  0
ENDSEC
  0
EOF
