  0
SECTION
  2
HEADER
  9
$EXTMIN
 10
0
 20
0
  9
$EXTMAX
 10
4200
 20
2970
  0
ENDSEC
  0
SECTION
  2
TABLES
  0
TABLE
  2
LTYPE
 70
     9
  0
LTYPE
  2
CONTINUOUS
 70
    64
  3
実線
 72
    65
 73
     0
 40
0.0
  0
LTYPE
  2
DASHED1
 70
    64
  3
--  --  --  --  --  --  --  --  
 72
    65
 73
     2
 40
2.5
 49
1.25
 49
-1.25
  0
LTYPE
  2
DASHED2
 70
    64
  3
----    ----    ----    ----    
 72
    65
 73
     2
 40
5.0
 49
2.5
 49
-2.5
  0
LTYPE
  2
DASHED3
 70
    64
  3
------  ------  ------  ------  
 72
    65
 73
     2
 40
5.0
 49
3.75
 49
-1.25
  0
LTYPE
  2
CENTER1
 70
    64
  3
----- - ----- - ----- - ----- - 
 72
    65
 73
     4
 40
10.0
 49
6.25
 49
-1.25
 49
1.25
 49
-1.25
  0
LTYPE
  2
CENTER2
 70
    64
  3
----------  --  ----------  --  
 72
    65
 73
     4
 40
20.0
 49
12.5
 49
-2.5
 49
2.5
 49
-2.5
  0
LTYPE
  2
PHANTOM1
 70
    64
  3
--- - - --- - - --- - - --- - - 
 72
    65
 73
     6
 40
10.0
 49
3.25
 49
-1.25
 49
1.25
 49
-1.25
 49
1.25
 49
-1.25
  0
LTYPE
  2
PHANTOM2
 70
    64
  3
--------  -  -  --------  -  -  
 72
    65
 73
     6
 40
20.0
 49
10.0
 49
-2.5
 49
1.25
 49
-2.5
 49
1.25
 49
-2.5
  0
LTYPE
  2
DOT
 70
    64
  3
-   -   -   -   -   -   -   -   
 72
    65
 73
     2
 40
2.5
 49
0.625
 49
-1.875
  0
ENDTAB
  0
TABLE
  2
STYLE
 70
    1
  0
STYLE
  2
STANDARD
 70
    64
 40
0.0
 41
1.0
 42
0.0
 50
0.0
 71
     0
  3
TXT
  4
BIGFONT
  0
ENDTAB
  0
TABLE
  2
LAYER
 70
    6
  0
LAYER
  2
1-1
 70
   64
 62
    7
  6
CONTINUOUS
  0
LAYER
  2
1-2
 70
   64
 62
    7
  6
CONTINUOUS
  0
LAYER
  2
1-5
 70
   64
 62
    7
  6
CONTINUOUS
  0
LAYER
  2
1-8
 70
   64
 62
    7
  6
CONTINUOUS
  0
LAYER
  2
1-d
 70
   64
 62
    7
  6
CONTINUOUS
  0
LAYER
  2
ADD_LINE
 70
   64
 62
    7
  6
CONTINUOUS
  0
ENDTAB
  0
ENDSEC
  0
SECTION
  2
ENTITIES
  0
LINE
  8
1-8
  6
CONTINUOUS
 62
    7
 10
624.99999
 20
2555.2124
 11
1475.0013
 21
2555.2124
  0
LINE
  8
1-8
  6
CONTINUOUS
 62
    7
 10
787.50004
 20
1336.6449
 11
1312.5
 21
1336.6445
  0
LINE
  8
1-d
  6
CONTINUOUS
 62
    7
 10
250.00003
 20
2757.7013
 11
1850.0001
 21
2757.7013
  0
LINE
  8
1-d
  6
CONTINUOUS
 62
    7
 10
250.00003
 20
2767.7014
 11
1850.0001
 21
2767.7014
  0
LINE
  8
1-2
  6
CONTINUOUS
 62
    3
 10
625.0011
 20
1834.7728
 11
624.99999
 21
1751.4382
  0
LINE
  8
1-2
  6
CONTINUOUS
 62
    3
 10
787.4988
 20
1509.7729
 11
1312.5
 21
1509.7729
  0
LINE
  8
1-2
  6
CONTINUOUS
 62
    3
 10
787.4988
 20
1526.4391
 11
1312.5
 21
1526.4391
  0
LINE
  8
1-2
  6
CONTINUOUS
 62
    3
 10
787.50004
 20
1476.4391
 11
1312.5013
 21
1476.4391
  0
LINE
  8
1-2
  6
CONTINUOUS
 62
    3
 10
787.50004
 20
1459.7727
 11
1312.5013
 21
1459.7722
  0
LINE
  8
1-2
  6
CONTINUOUS
 62
    3
 10
787.4988
 20
1509.7729
 11
787.50004
 21
1476.4381
  0
LINE
  8
1-2
  6
CONTINUOUS
 62
    3
 10
1312.4988
 20
1509.7729
 11
1312.5
 21
1476.4381
  0
LINE
  8
1-2
  6
CONTINUOUS
 62
    3
 10
787.50004
 20
1651.4391
 11
787.4988
 21
1526.4391
  0
LINE
  8
1-2
  6
CONTINUOUS
 62
    3
 10
1312.4988
 20
1509.7729
 11
1312.5
 21
1476.4381
  0
LINE
  8
1-2
  6
CONTINUOUS
 62
    3
 10
1475.0013
 20
1834.7728
 11
1475.0001
 21
1751.4382
  0
LINE
  8
1-2
  6
CONTINUOUS
 62
    3
 10
624.99986
 20
2184.7724
 11
624.99986
 21
2101.4379
  0
LINE
  8
1-2
  6
CONTINUOUS
 62
    3
 10
1475.0001
 20
2184.7724
 11
1475.0001
 21
2101.4379
  0
LINE
  8
1-8
  6
CONTINUOUS
 62
    7
 10
497.7199
 20
1459.7722
 11
266.66702
 21
1459.7722
  0
LINE
  8
1-8
  6
CONTINUOUS
 62
    7
 10
568.55178
 20
2409.7722
 11
266.66702
 21
2409.7722
  0
LINE
  8
1-8
  6
CONTINUOUS
 62
    7
 10
1475.0013
 20
2334.1036
 11
1475.0013
 21
2555.2124
  0
LINE
  8
1-2
  6
CONTINUOUS
 62
    3
 10
624.99999
 20
1734.7719
 11
708.33327
 21
1651.4391
  0
LINE
  8
1-2
  6
CONTINUOUS
 62
    3
 10
975.96061
 20
2277.8841
 11
976.64651
 21
2278.0679
  0
LINE
  8
1-2
  6
CONTINUOUS
 62
    3
 10
976.64651
 20
2278.0679
 11
977.29084
 21
2278.3173
  0
LINE
  8
1-2
  6
CONTINUOUS
 62
    3
 10
977.29084
 20
2278.3173
 11
977.89398
 21
2278.6289
  0
LINE
  8
1-2
  6
CONTINUOUS
 62
    3
 10
977.89398
 20
2278.6289
 11
978.4569
 21
2278.9965
  0
LINE
  8
1-2
  6
CONTINUOUS
 62
    3
 10
978.4569
 20
2278.9965
 11
978.98024
 21
2279.4169
  0
LINE
  8
1-2
  6
CONTINUOUS
 62
    3
 10
978.98024
 20
2279.4169
 11
979.46485
 21
2279.8846
  0
LINE
  8
1-2
  6
CONTINUOUS
 62
    3
 10
979.46485
 20
2279.8846
 11
979.91148
 21
2280.3946
  0
LINE
  8
1-2
  6
CONTINUOUS
 62
    3
 10
979.91148
 20
2280.3946
 11
980.32099
 21
2280.9437
  0
LINE
  8
1-2
  6
CONTINUOUS
 62
    3
 10
980.32099
 20
2280.9437
 11
980.69376
 21
2281.5254
  0
LINE
  8
1-2
  6
CONTINUOUS
 62
    3
 10
980.69376
 20
2281.5254
 11
981.03102
 21
2282.1358
  0
LINE
  8
1-2
  6
CONTINUOUS
 62
    3
 10
981.03102
 20
2282.1358
 11
981.33314
 21
2282.771
  0
LINE
  8
1-2
  6
CONTINUOUS
 62
    3
 10
981.33314
 20
2282.771
 11
981.60112
 21
2283.425
  0
LINE
  8
1-2
  6
CONTINUOUS
 62
    3
 10
981.60112
 20
2283.425
 11
981.83557
 21
2284.0936
  0
LINE
  8
1-2
  6
CONTINUOUS
 62
    3
 10
981.83557
 20
2284.0936
 11
982.03736
 21
2284.7718
  0
LINE
  8
1-2
  6
CONTINUOUS
 62
    3
 10
972.19321
 20
2277.8472
 11
971.40004
 21
2278.1021
  0
LINE
  8
1-2
  6
CONTINUOUS
 62
    3
 10
971.40004
 20
2278.1021
 11
970.65587
 21
2278.4037
  0
LINE
  8
1-2
  6
CONTINUOUS
 62
    3
 10
970.65587
 20
2278.4037
 11
969.95994
 21
2278.7484
  0
LINE
  8
1-2
  6
CONTINUOUS
 62
    3
 10
969.95994
 20
2278.7484
 11
969.31215
 21
2279.1351
  0
LINE
  8
1-2
  6
CONTINUOUS
 62
    3
 10
969.31215
 20
2279.1351
 11
968.71173
 21
2279.5607
  0
LINE
  8
1-2
  6
CONTINUOUS
 62
    3
 10
968.71173
 20
2279.5607
 11
968.15809
 21
2280.0234
  0
LINE
  8
1-2
  6
CONTINUOUS
 62
    3
 10
968.15809
 20
2280.0234
 11
967.65096
 21
2280.5208
  0
LINE
  8
1-2
  6
CONTINUOUS
 62
    3
 10
967.65096
 20
2280.5208
 11
967.18961
 21
2281.0501
  0
LINE
  8
1-2
  6
CONTINUOUS
 62
    3
 10
967.18961
 20
2281.0501
 11
966.77341
 21
2281.6093
  0
LINE
  8
1-2
  6
CONTINUOUS
 62
    3
 10
966.77341
 20
2281.6093
 11
966.40213
 21
2282.1959
  0
LINE
  8
1-2
  6
CONTINUOUS
 62
    3
 10
966.40213
 20
2282.1959
 11
966.07501
 21
2282.8081
  0
LINE
  8
1-2
  6
CONTINUOUS
 62
    3
 10
966.07501
 20
2282.8081
 11
965.79169
 21
2283.443
  0
LINE
  8
1-2
  6
CONTINUOUS
 62
    3
 10
965.79169
 20
2283.443
 11
965.55155
 21
2284.0985
  0
LINE
  8
1-2
  6
CONTINUOUS
 62
    3
 10
965.55155
 20
2284.0985
 11
965.35397
 21
2284.7718
  0
LINE
  8
1-2
  6
CONTINUOUS
 62
    3
 10
932.63909
 20
2284.7718
 11
931.87079
 21
2283.6534
  0
LINE
  8
1-2
  6
CONTINUOUS
 62
    3
 10
931.87079
 20
2283.6534
 11
931.09358
 21
2282.6584
  0
LINE
  8
1-2
  6
CONTINUOUS
 62
    3
 10
931.09358
 20
2282.6584
 11
930.31055
 21
2281.78
  0
LINE
  8
1-2
  6
CONTINUOUS
 62
    3
 10
930.31055
 20
2281.78
 11
929.52469
 21
2281.0112
  0
LINE
  8
1-2
  6
CONTINUOUS
 62
    3
 10
929.52469
 20
2281.0112
 11
928.73919
 21
2280.3451
  0
LINE
  8
1-2
  6
CONTINUOUS
 62
    3
 10
928.73919
 20
2280.3451
 11
927.95691
 21
2279.776
  0
LINE
  8
1-2
  6
CONTINUOUS
 62
    3
 10
927.95691
 20
2279.776
 11
927.18094
 21
2279.2952
  0
LINE
  8
1-2
  6
CONTINUOUS
 62
    3
 10
927.18094
 20
2279.2952
 11
926.41437
 21
2278.8968
  0
LINE
  8
1-2
  6
CONTINUOUS
 62
    3
 10
926.41437
 20
2278.8968
 11
925.66029
 21
2278.5734
  0
LINE
  8
1-2
  6
CONTINUOUS
 62
    3
 10
925.66029
 20
2278.5734
 11
924.92169
 21
2278.3196
  0
LINE
  8
1-2
  6
CONTINUOUS
 62
    3
 10
924.92169
 20
2278.3196
 11
924.20164
 21
2278.1261
  0
LINE
  8
1-2
  6
CONTINUOUS
 62
    3
 10
924.20164
 20
2278.1261
 11
923.50336
 21
2277.988
  0
LINE
  8
1-2
  6
CONTINUOUS
 62
    3
 10
923.50336
 20
2277.988
 11
922.82958
 21
2277.8967
  0
LINE
  8
1-2
  6
CONTINUOUS
 62
    3
 10
922.82958
 20
2277.8967
 11
922.18364
 21
2277.8472
  0
LINE
  8
1-2
  6
CONTINUOUS
 62
    3
 10
916.68615
 20
2284.7718
 11
916.70916
 21
2283.9676
  0
LINE
  8
1-2
  6
CONTINUOUS
 62
    3
 10
916.70916
 20
2283.9676
 11
916.77869
 21
2283.2238
  0
LINE
  8
1-2
  6
CONTINUOUS
 62
    3
 10
916.77869
 20
2283.2238
 11
916.89709
 21
2282.5379
  0
LINE
  8
1-2
  6
CONTINUOUS
 62
    3
 10
916.89709
 20
2282.5379
 11
917.06733
 21
2281.9064
  0
LINE
  8
1-2
  6
CONTINUOUS
 62
    3
 10
917.06733
 20
2281.9064
 11
917.292
 21
2281.3259
  0
LINE
  8
1-2
  6
CONTINUOUS
 62
    3
 10
917.292
 20
2281.3259
 11
917.57334
 21
2280.7935
  0
LINE
  8
1-2
  6
CONTINUOUS
 62
    3
 10
917.57334
 20
2280.7935
 11
917.91419
 21
2280.3055
  0
LINE
  8
1-2
  6
CONTINUOUS
 62
    3
 10
917.91419
 20
2280.3055
 11
918.31715
 21
2279.8576
  0
LINE
  8
1-2
  6
CONTINUOUS
 62
    3
 10
918.31715
 20
2279.8576
 11
918.78468
 21
2279.4486
  0
LINE
  8
1-2
  6
CONTINUOUS
 62
    3
 10
918.78468
 20
2279.4486
 11
919.31952
 21
2279.0733
  0
LINE
  8
1-2
  6
CONTINUOUS
 62
    3
 10
919.31952
 20
2279.0733
 11
919.92439
 21
2278.7286
  0
LINE
  8
1-2
  6
CONTINUOUS
 62
    3
 10
919.92439
 20
2278.7286
 11
920.60151
 21
2278.4118
  0
LINE
  8
1-2
  6
CONTINUOUS
 62
    3
 10
920.60151
 20
2278.4118
 11
921.35385
 21
2278.1186
  0
LINE
  8
1-2
  6
CONTINUOUS
 62
    3
 10
921.35385
 20
2278.1186
 11
922.18364
 21
2277.8472
  0
LINE
  8
1-2
  6
CONTINUOUS
 62
    3
 10
870.90409
 20
2284.7718
 11
871.29591
 21
2283.8271
  0
LINE
  8
1-2
  6
CONTINUOUS
 62
    3
 10
871.29591
 20
2283.8271
 11
871.70393
 21
2282.9697
  0
LINE
  8
1-2
  6
CONTINUOUS
 62
    3
 10
871.70393
 20
2282.9697
 11
872.12792
 21
2282.1959
  0
LINE
  8
1-2
  6
CONTINUOUS
 62
    3
 10
872.12792
 20
2282.1959
 11
872.56738
 21
2281.5016
  0
LINE
  8
1-2
  6
CONTINUOUS
 62
    3
 10
872.56738
 20
2281.5016
 11
873.0218
 21
2280.882
  0
LINE
  8
1-2
  6
CONTINUOUS
 62
    3
 10
873.0218
 20
2280.882
 11
873.49095
 21
2280.334
  0
LINE
  8
1-2
  6
CONTINUOUS
 62
    3
 10
873.49095
 20
2280.334
 11
873.9742
 21
2279.8524
  0
LINE
  8
1-2
  6
CONTINUOUS
 62
    3
 10
873.9742
 20
2279.8524
 11
874.47143
 21
2279.4333
  0
LINE
  8
1-2
  6
CONTINUOUS
 62
    3
 10
874.47143
 20
2279.4333
 11
874.98189
 21
2279.0725
  0
LINE
  8
1-2
  6
CONTINUOUS
 62
    3
 10
874.98189
 20
2279.0725
 11
875.50548
 21
2278.7657
  0
LINE
  8
1-2
  6
CONTINUOUS
 62
    3
 10
875.50548
 20
2278.7657
 11
876.04168
 21
2278.5091
  0
LINE
  8
1-2
  6
CONTINUOUS
 62
    3
 10
876.04168
 20
2278.5091
 11
876.59025
 21
2278.2975
  0
LINE
  8
1-2
  6
CONTINUOUS
 62
    3
 10
876.59025
 20
2278.2975
 11
877.15033
 21
2278.128
  0
LINE
  8
1-2
  6
CONTINUOUS
 62
    3
 10
877.15033
 20
2278.128
 11
877.72204
 21
2277.9954
  0
LINE
  8
1-2
  6
CONTINUOUS
 62
    3
 10
878.97904
 20
2277.9954
 11
879.57512
 21
2278.1082
  0
LINE
  8
1-2
  6
CONTINUOUS
 62
    3
 10
879.57512
 20
2278.1082
 11
880.1665
 21
2278.2886
  0
LINE
  8
1-2
  6
CONTINUOUS
 62
    3
 10
880.1665
 20
2278.2886
 11
880.75293
 21
2278.5356
  0
LINE
  8
1-2
  6
CONTINUOUS
 62
    3
 10
880.75293
 20
2278.5356
 11
881.33479
 21
2278.8491
  0
LINE
  8
1-2
  6
CONTINUOUS
 62
    3
 10
881.33479
 20
2278.8491
 11
881.91145
 21
2279.2296
  0
LINE
  8
1-2
  6
CONTINUOUS
 62
    3
 10
881.91145
 20
2279.2296
 11
882.48353
 21
2279.677
  0
LINE
  8
1-2
  6
CONTINUOUS
 62
    3
 10
882.48353
 20
2279.677
 11
883.05066
 21
2280.1917
  0
LINE
  8
1-2
  6
CONTINUOUS
 62
    3
 10
883.05066
 20
2280.1917
 11
883.61309
 21
2280.7729
  0
LINE
  8
1-2
  6
CONTINUOUS
 62
    3
 10
883.61309
 20
2280.7729
 11
884.17057
 21
2281.4207
  0
LINE
  8
1-2
  6
CONTINUOUS
 62
    3
 10
828.99891
 20
2284.7718
 11
829.11236
 21
2284.0517
  0
LINE
  8
1-2
  6
CONTINUOUS
 62
    3
 10
829.11236
 20
2284.0517
 11
829.2732
 21
2283.3812
  0
LINE
  8
1-2
  6
CONTINUOUS
 62
    3
 10
829.2732
 20
2283.3812
 11
829.47796
 21
2282.7576
  0
LINE
  8
1-2
  6
CONTINUOUS
 62
    3
 10
829.47796
 20
2282.7576
 11
829.72267
 21
2282.1809
  0
LINE
  8
1-2
  6
CONTINUOUS
 62
    3
 10
829.72267
 20
2282.1809
 11
830.00389
 21
2281.6476
  0
LINE
  8
1-2
  6
CONTINUOUS
 62
    3
 10
830.00389
 20
2281.6476
 11
830.31826
 21
2281.156
  0
LINE
  8
1-2
  6
CONTINUOUS
 62
    3
 10
830.31826
 20
2281.156
 11
830.66257
 21
2280.7044
  0
LINE
  8
1-2
  6
CONTINUOUS
 62
    3
 10
830.66257
 20
2280.7044
 11
831.03398
 21
2280.2924
  0
LINE
  8
1-2
  6
CONTINUOUS
 62
    3
 10
831.03398
 20
2280.2924
 11
831.42976
 21
2279.917
  0
LINE
  8
1-2
  6
CONTINUOUS
 62
    3
 10
831.42976
 20
2279.917
 11
831.84694
 21
2279.578
  0
LINE
  8
1-2
  6
CONTINUOUS
 62
    3
 10
831.84694
 20
2279.578
 11
832.28355
 21
2279.2737
  0
LINE
  8
1-2
  6
CONTINUOUS
 62
    3
 10
832.28355
 20
2279.2737
 11
832.73711
 21
2279.0037
  0
LINE
  8
1-2
  6
CONTINUOUS
 62
    3
 10
832.73711
 20
2279.0037
 11
833.20564
 21
2278.7662
  0
LINE
  8
1-2
  6
CONTINUOUS
 62
    3
 10
833.20564
 20
2278.7662
 11
833.68728
 21
2278.5608
  0
LINE
  8
1-2
  6
CONTINUOUS
 62
    3
 10
833.68728
 20
2278.5608
 11
834.18043
 21
2278.3871
  0
LINE
  8
1-2
  6
CONTINUOUS
 62
    3
 10
834.18043
 20
2278.3871
 11
834.68372
 21
2278.2436
  0
LINE
  8
1-2
  6
CONTINUOUS
 62
    3
 10
834.68372
 20
2278.2436
 11
835.19542
 21
2278.1305
  0
LINE
  8
1-2
  6
CONTINUOUS
 62
    3
 10
835.19542
 20
2278.1305
 11
835.71492
 21
2278.0481
  0
LINE
  8
1-2
  6
CONTINUOUS
 62
    3
 10
835.71492
 20
2278.0481
 11
836.2411
 21
2277.9954
  0
LINE
  8
1-2
  6
CONTINUOUS
 62
    3
 10
836.37386
 20
2278.0011
 11
836.67017
 21
2278.0308
  0
LINE
  8
1-2
  6
CONTINUOUS
 62
    3
 10
836.67017
 20
2278.0308
 11
836.9614
 21
2278.0729
  0
LINE
  8
1-2
  6
CONTINUOUS
 62
    3
 10
836.9614
 20
2278.0729
 11
837.24732
 21
2278.1278
  0
LINE
  8
1-2
  6
CONTINUOUS
 62
    3
 10
837.24732
 20
2278.1278
 11
837.52829
 21
2278.1953
  0
LINE
  8
1-2
  6
CONTINUOUS
 62
    3
 10
837.52829
 20
2278.1953
 11
837.80418
 21
2278.2758
  0
LINE
  8
1-2
  6
CONTINUOUS
 62
    3
 10
837.80418
 20
2278.2758
 11
838.07501
 21
2278.369
  0
LINE
  8
1-2
  6
CONTINUOUS
 62
    3
 10
838.07501
 20
2278.369
 11
838.34063
 21
2278.4745
  0
LINE
  8
1-2
  6
CONTINUOUS
 62
    3
 10
838.34063
 20
2278.4745
 11
838.60119
 21
2278.5932
  0
LINE
  8
1-2
  6
CONTINUOUS
 62
    3
 10
838.60119
 20
2278.5932
 11
838.85654
 21
2278.7254
  0
LINE
  8
1-2
  6
CONTINUOUS
 62
    3
 10
716.6345
 20
2284.7718
 11
716.73595
 21
2284.0144
  0
LINE
  8
1-2
  6
CONTINUOUS
 62
    3
 10
716.73595
 20
2284.0144
 11
716.8431
 21
2283.3218
  0
LINE
  8
1-2
  6
CONTINUOUS
 62
    3
 10
716.8431
 20
2283.3218
 11
716.95642
 21
2282.6945
  0
LINE
  8
1-2
  6
CONTINUOUS
 62
    3
 10
716.95642
 20
2282.6945
 11
717.07556
 21
2282.1326
  0
LINE
  8
1-2
  6
CONTINUOUS
 62
    3
 10
717.07556
 20
2282.1326
 11
717.20052
 21
2281.6365
  0
LINE
  8
1-2
  6
CONTINUOUS
 62
    3
 10
717.20052
 20
2281.6365
 11
717.33142
 21
2281.2054
  0
LINE
  8
1-2
  6
CONTINUOUS
 62
    3
 10
717.33142
 20
2281.2054
 11
717.46813
 21
2280.84
  0
LINE
  8
1-2
  6
CONTINUOUS
 62
    3
 10
717.46813
 20
2280.84
 11
717.61078
 21
2280.5398
  0
LINE
  8
1-2
  6
CONTINUOUS
 62
    3
 10
717.61078
 20
2280.5398
 11
717.75924
 21
2280.3055
  0
LINE
  8
1-2
  6
CONTINUOUS
 62
    3
 10
735.08077
 20
2284.7718
 11
735.13694
 21
2284.1718
  0
LINE
  8
1-2
  6
CONTINUOUS
 62
    3
 10
735.13694
 20
2284.1718
 11
735.22973
 21
2283.6044
  0
LINE
  8
1-2
  6
CONTINUOUS
 62
    3
 10
735.22973
 20
2283.6044
 11
735.35494
 21
2283.0694
  0
LINE
  8
1-2
  6
CONTINUOUS
 62
    3
 10
735.35494
 20
2283.0694
 11
735.50934
 21
2282.5676
  0
LINE
  8
1-2
  6
CONTINUOUS
 62
    3
 10
735.50934
 20
2282.5676
 11
735.68935
 21
2282.0987
  0
LINE
  8
1-2
  6
CONTINUOUS
 62
    3
 10
735.68935
 20
2282.0987
 11
735.89151
 21
2281.6637
  0
LINE
  8
1-2
  6
CONTINUOUS
 62
    3
 10
735.89151
 20
2281.6637
 11
736.11185
 21
2281.2616
  0
LINE
  8
1-2
  6
CONTINUOUS
 62
    3
 10
736.11185
 20
2281.2616
 11
736.34692
 21
2280.8929
  0
LINE
  8
1-2
  6
CONTINUOUS
 62
    3
 10
736.34692
 20
2280.8929
 11
736.59312
 21
2280.5579
  0
LINE
  8
1-2
  6
CONTINUOUS
 62
    3
 10
736.59312
 20
2280.5579
 11
736.84687
 21
2280.257
  0
LINE
  8
1-2
  6
CONTINUOUS
 62
    3
 10
736.84687
 20
2280.257
 11
737.10458
 21
2279.9905
  0
LINE
  8
1-2
  6
CONTINUOUS
 62
    3
 10
737.10458
 20
2279.9905
 11
737.36266
 21
2279.7579
  0
LINE
  8
1-2
  6
CONTINUOUS
 62
    3
 10
737.36266
 20
2279.7579
 11
737.61753
 21
2279.56
  0
LINE
  8
1-2
  6
CONTINUOUS
 62
    3
 10
737.61753
 20
2279.56
 11
737.86558
 21
2279.3967
  0
LINE
  8
1-2
  6
CONTINUOUS
 62
    3
 10
760.34426
 20
2284.7718
 11
760.51177
 21
2284.1037
  0
LINE
  8
1-2
  6
CONTINUOUS
 62
    3
 10
760.51177
 20
2284.1037
 11
760.71579
 21
2283.4787
  0
LINE
  8
1-2
  6
CONTINUOUS
 62
    3
 10
760.71579
 20
2283.4787
 11
760.95469
 21
2282.8955
  0
LINE
  8
1-2
  6
CONTINUOUS
 62
    3
 10
760.95469
 20
2282.8955
 11
761.227
 21
2282.3541
  0
LINE
  8
1-2
  6
CONTINUOUS
 62
    3
 10
761.227
 20
2282.3541
 11
761.53135
 21
2281.8537
  0
LINE
  8
1-2
  6
CONTINUOUS
 62
    3
 10
761.53135
 20
2281.8537
 11
761.86613
 21
2281.3952
  0
LINE
  8
1-2
  6
CONTINUOUS
 62
    3
 10
761.86613
 20
2281.3952
 11
762.23012
 21
2280.9773
  0
LINE
  8
1-2
  6
CONTINUOUS
 62
    3
 10
762.23012
 20
2280.9773
 11
762.62169
 21
2280.6
  0
LINE
  8
1-2
  6
CONTINUOUS
 62
    3
 10
762.62169
 20
2280.6
 11
763.03937
 21
2280.2632
  0
LINE
  8
1-2
  6
CONTINUOUS
 62
    3
 10
763.03937
 20
2280.2632
 11
763.48179
 21
2279.9658
  0
LINE
  8
1-2
  6
CONTINUOUS
 62
    3
 10
763.48179
 20
2279.9658
 11
763.94747
 21
2279.7084
  0
LINE
  8
1-2
  6
CONTINUOUS
 62
    3
 10
763.94747
 20
2279.7084
 11
764.43493
 21
2279.4899
  0
LINE
  8
1-2
  6
CONTINUOUS
 62
    3
 10
764.43493
 20
2279.4899
 11
764.94255
 21
2279.3106
  0
LINE
  8
1-2
  6
CONTINUOUS
 62
    3
 10
764.94255
 20
2279.3106
 11
765.46923
 21
2279.1695
  0
LINE
  8
1-2
  6
CONTINUOUS
 62
    3
 10
791.86364
 20
2284.7718
 11
792.11701
 21
2284.072
  0
LINE
  8
1-2
  6
CONTINUOUS
 62
    3
 10
792.11701
 20
2284.072
 11
792.4137
 21
2283.4232
  0
LINE
  8
1-2
  6
CONTINUOUS
 62
    3
 10
792.4137
 20
2283.4232
 11
792.75021
 21
2282.8254
  0
LINE
  8
1-2
  6
CONTINUOUS
 62
    3
 10
792.75021
 20
2282.8254
 11
793.12311
 21
2282.2793
  0
LINE
  8
1-2
  6
CONTINUOUS
 62
    3
 10
793.12311
 20
2282.2793
 11
793.52841
 21
2281.7845
  0
LINE
  8
1-2
  6
CONTINUOUS
 62
    3
 10
793.52841
 20
2281.7845
 11
793.96254
 21
2281.341
  0
LINE
  8
1-2
  6
CONTINUOUS
 62
    3
 10
793.96254
 20
2281.341
 11
794.42167
 21
2280.9488
  0
LINE
  8
1-2
  6
CONTINUOUS
 62
    3
 10
794.42167
 20
2280.9488
 11
794.9017
 21
2280.6066
  0
LINE
  8
1-2
  6
CONTINUOUS
 62
    3
 10
794.9017
 20
2280.6066
 11
795.39893
 21
2280.3147
  0
LINE
  8
1-2
  6
CONTINUOUS
 62
    3
 10
795.39893
 20
2280.3147
 11
795.90878
 21
2280.0714
  0
LINE
  8
1-2
  6
CONTINUOUS
 62
    3
 10
795.90878
 20
2280.0714
 11
796.42742
 21
2279.8762
  0
LINE
  8
1-2
  6
CONTINUOUS
 62
    3
 10
796.42742
 20
2279.8762
 11
796.95013
 21
2279.7275
  0
LINE
  8
1-2
  6
CONTINUOUS
 62
    3
 10
796.95013
 20
2279.7275
 11
797.4726
 21
2279.6243
  0
LINE
  8
1-2
  6
CONTINUOUS
 62
    3
 10
797.4726
 20
2279.6243
 11
797.99049
 21
2279.5644
  0
LINE
  8
1-2
  6
CONTINUOUS
 62
    3
 10
797.99049
 20
2279.5644
 11
798.49886
 21
2279.5469
  0
LINE
  8
1-2
  6
CONTINUOUS
 62
    3
 10
798.49886
 20
2279.5469
 11
798.99312
 21
2279.5686
  0
LINE
  8
1-2
  6
CONTINUOUS
 62
    3
 10
798.99312
 20
2279.5686
 11
799.4687
 21
2279.628
  0
LINE
  8
1-2
  6
CONTINUOUS
 62
    3
 10
799.4687
 20
2279.628
 11
799.92028
 21
2279.7233
  0
LINE
  8
1-2
  6
CONTINUOUS
 62
    3
 10
799.92028
 20
2279.7233
 11
800.3429
 21
2279.8512
  0
LINE
  8
1-2
  6
CONTINUOUS
 62
    3
 10
716.6345
 20
2284.7718
 11
708.33302
 21
2284.7718
  0
LINE
  8
1-2
  6
CONTINUOUS
 62
    3
 10
635.32577
 20
2201.439
 11
716.6345
 21
2284.7718
  0
LINE
  8
1-2
  6
CONTINUOUS
 62
    3
 10
721.99813
 20
2284.7718
 11
641.99749
 21
2201.439
  0
LINE
  8
1-2
  6
CONTINUOUS
 62
    3
 10
658.27124
 20
2201.439
 11
735.08077
 21
2284.7718
  0
LINE
  8
1-2
  6
CONTINUOUS
 62
    3
 10
735.08077
 20
2284.7718
 11
721.99813
 21
2284.7718
  0
LINE
  8
1-2
  6
CONTINUOUS
 62
    3
 10
742.7686
 20
2284.7718
 11
667.83392
 21
2201.439
  0
LINE
  8
1-2
  6
CONTINUOUS
 62
    3
 10
760.34426
 20
2284.7718
 11
742.7686
 21
2284.7718
  0
LINE
  8
1-2
  6
CONTINUOUS
 62
    3
 10
689.69647
 20
2201.439
 11
760.34426
 21
2284.7718
  0
LINE
  8
1-2
  6
CONTINUOUS
 62
    3
 10
770.18989
 20
2284.7718
 11
701.94338
 21
2201.439
  0
LINE
  8
1-2
  6
CONTINUOUS
 62
    3
 10
791.87774
 20
2284.7718
 11
770.18989
 21
2284.7718
  0
LINE
  8
1-2
  6
CONTINUOUS
 62
    3
 10
728.92113
 20
2201.439
 11
791.87774
 21
2284.7718
  0
LINE
  8
1-2
  6
CONTINUOUS
 62
    3
 10
803.668
 20
2284.7718
 11
743.58701
 21
2201.439
  0
LINE
  8
1-2
  6
CONTINUOUS
 62
    3
 10
828.99891
 20
2284.7718
 11
803.668
 21
2284.7718
  0
LINE
  8
1-2
  6
CONTINUOUS
 62
    3
 10
775.09625
 20
2201.439
 11
828.99891
 21
2284.7718
  0
LINE
  8
1-2
  6
CONTINUOUS
 62
    3
 10
842.47869
 20
2284.7718
 11
791.86364
 21
2201.439
  0
LINE
  8
1-2
  6
CONTINUOUS
 62
    3
 10
870.90409
 20
2284.7718
 11
842.47869
 21
2284.7718
  0
LINE
  8
1-2
  6
CONTINUOUS
 62
    3
 10
827.22217
 20
2201.439
 11
870.90409
 21
2284.7718
  0
LINE
  8
1-2
  6
CONTINUOUS
 62
    3
 10
885.78141
 20
2284.7718
 11
845.72807
 21
2201.439
  0
LINE
  8
1-2
  6
CONTINUOUS
 62
    3
 10
916.68615
 20
2284.7718
 11
885.78141
 21
2284.7718
  0
LINE
  8
1-2
  6
CONTINUOUS
 62
    3
 10
884.17057
 20
2201.439
 11
916.68615
 21
2284.7718
  0
LINE
  8
1-2
  6
CONTINUOUS
 62
    3
 10
904.01426
 20
2201.439
 11
932.63909
 21
2284.7718
  0
LINE
  8
1-2
  6
CONTINUOUS
 62
    3
 10
965.35397
 20
2284.7718
 11
932.63909
 21
2284.7718
  0
LINE
  8
1-2
  6
CONTINUOUS
 62
    3
 10
965.35397
 20
2284.7718
 11
944.70858
 21
2201.439
  0
LINE
  8
1-2
  6
CONTINUOUS
 62
    3
 10
965.46087
 20
2201.439
 11
982.03736
 21
2284.7718
  0
LINE
  8
1-2
  6
CONTINUOUS
 62
    3
 10
1015.8543
 20
2284.7718
 11
982.03736
 21
2284.7718
  0
LINE
  8
1-2
  6
CONTINUOUS
 62
    3
 10
1015.8543
 20
2284.7718
 11
1007.526
 21
2201.439
  0
LINE
  8
1-2
  6
CONTINUOUS
 62
    3
 10
1032.9065
 20
2284.7718
 11
1028.7374
 21
2201.439
  0
LINE
  8
1-2
  6
CONTINUOUS
 62
    3
 10
1050
 20
2284.7718
 11
1032.9065
 21
2284.7718
  0
LINE
  8
1-2
  6
CONTINUOUS
 62
    3
 10
1383.3657
 20
2284.7718
 11
1383.2642
 21
2284.0144
  0
LINE
  8
1-2
  6
CONTINUOUS
 62
    3
 10
1383.2642
 20
2284.0144
 11
1383.1566
 21
2283.3218
  0
LINE
  8
1-2
  6
CONTINUOUS
 62
    3
 10
1383.1566
 20
2283.3218
 11
1383.0438
 21
2282.6945
  0
LINE
  8
1-2
  6
CONTINUOUS
 62
    3
 10
1383.0438
 20
2282.6945
 11
1382.9245
 21
2282.1326
  0
LINE
  8
1-2
  6
CONTINUOUS
 62
    3
 10
1382.9245
 20
2282.1326
 11
1382.7995
 21
2281.6365
  0
LINE
  8
1-2
  6
CONTINUOUS
 62
    3
 10
1382.7995
 20
2281.6365
 11
1382.6686
 21
2281.2054
  0
LINE
  8
1-2
  6
CONTINUOUS
 62
    3
 10
1382.6686
 20
2281.2054
 11
1382.5318
 21
2280.84
  0
LINE
  8
1-2
  6
CONTINUOUS
 62
    3
 10
1382.5318
 20
2280.84
 11
1382.3893
 21
2280.5398
  0
LINE
  8
1-2
  6
CONTINUOUS
 62
    3
 10
1382.3893
 20
2280.5398
 11
1382.2408
 21
2280.3055
  0
LINE
  8
1-2
  6
CONTINUOUS
 62
    3
 10
1364.9192
 20
2284.7718
 11
1364.8631
 21
2284.1718
  0
LINE
  8
1-2
  6
CONTINUOUS
 62
    3
 10
1364.8631
 20
2284.1718
 11
1364.7703
 21
2283.6044
  0
LINE
  8
1-2
  6
CONTINUOUS
 62
    3
 10
1364.7703
 20
2283.6044
 11
1364.6449
 21
2283.0694
  0
LINE
  8
1-2
  6
CONTINUOUS
 62
    3
 10
1364.6449
 20
2283.0694
 11
1364.4907
 21
2282.5676
  0
LINE
  8
1-2
  6
CONTINUOUS
 62
    3
 10
1364.4907
 20
2282.5676
 11
1364.3105
 21
2282.0987
  0
LINE
  8
1-2
  6
CONTINUOUS
 62
    3
 10
1364.3105
 20
2282.0987
 11
1364.1085
 21
2281.6637
  0
LINE
  8
1-2
  6
CONTINUOUS
 62
    3
 10
1364.1085
 20
2281.6637
 11
1363.8882
 21
2281.2616
  0
LINE
  8
1-2
  6
CONTINUOUS
 62
    3
 10
1363.8882
 20
2281.2616
 11
1363.6531
 21
2280.8929
  0
LINE
  8
1-2
  6
CONTINUOUS
 62
    3
 10
1363.6531
 20
2280.8929
 11
1363.4069
 21
2280.5579
  0
LINE
  8
1-2
  6
CONTINUOUS
 62
    3
 10
1363.4069
 20
2280.5579
 11
1363.1533
 21
2280.257
  0
LINE
  8
1-2
  6
CONTINUOUS
 62
    3
 10
1363.1533
 20
2280.257
 11
1362.8953
 21
2279.9905
  0
LINE
  8
1-2
  6
CONTINUOUS
 62
    3
 10
1362.8953
 20
2279.9905
 11
1362.6374
 21
2279.7579
  0
LINE
  8
1-2
  6
CONTINUOUS
 62
    3
 10
1362.6374
 20
2279.7579
 11
1362.3825
 21
2279.56
  0
LINE
  8
1-2
  6
CONTINUOUS
 62
    3
 10
1362.3825
 20
2279.56
 11
1362.1345
 21
2279.3967
  0
LINE
  8
1-2
  6
CONTINUOUS
 62
    3
 10
1339.6558
 20
2284.7718
 11
1339.4883
 21
2284.1037
  0
LINE
  8
1-2
  6
CONTINUOUS
 62
    3
 10
1339.4883
 20
2284.1037
 11
1339.2844
 21
2283.4787
  0
LINE
  8
1-2
  6
CONTINUOUS
 62
    3
 10
1339.2844
 20
2283.4787
 11
1339.0454
 21
2282.8955
  0
LINE
  8
1-2
  6
CONTINUOUS
 62
    3
 10
1339.0454
 20
2282.8955
 11
1338.7731
 21
2282.3541
  0
LINE
  8
1-2
  6
CONTINUOUS
 62
    3
 10
1338.7731
 20
2282.3541
 11
1338.4687
 21
2281.8537
  0
LINE
  8
1-2
  6
CONTINUOUS
 62
    3
 10
1338.4687
 20
2281.8537
 11
1338.1338
 21
2281.3952
  0
LINE
  8
1-2
  6
CONTINUOUS
 62
    3
 10
1338.1338
 20
2281.3952
 11
1337.7701
 21
2280.9773
  0
LINE
  8
1-2
  6
CONTINUOUS
 62
    3
 10
1337.7701
 20
2280.9773
 11
1337.3782
 21
2280.6
  0
LINE
  8
1-2
  6
CONTINUOUS
 62
    3
 10
1337.3782
 20
2280.6
 11
1336.9607
 21
2280.2632
  0
LINE
  8
1-2
  6
CONTINUOUS
 62
    3
 10
1336.9607
 20
2280.2632
 11
1336.5183
 21
2279.9658
  0
LINE
  8
1-2
  6
CONTINUOUS
 62
    3
 10
1336.5183
 20
2279.9658
 11
1336.0526
 21
2279.7084
  0
LINE
  8
1-2
  6
CONTINUOUS
 62
    3
 10
1336.0526
 20
2279.7084
 11
1335.5651
 21
2279.4899
  0
LINE
  8
1-2
  6
CONTINUOUS
 62
    3
 10
1335.5651
 20
2279.4899
 11
1335.0573
 21
2279.3106
  0
LINE
  8
1-2
  6
CONTINUOUS
 62
    3
 10
1335.0573
 20
2279.3106
 11
1334.5308
 21
2279.1695
  0
LINE
  8
1-2
  6
CONTINUOUS
 62
    3
 10
1308.1364
 20
2284.7718
 11
1307.883
 21
2284.072
  0
LINE
  8
1-2
  6
CONTINUOUS
 62
    3
 10
1307.883
 20
2284.072
 11
1307.5864
 21
2283.4232
  0
LINE
  8
1-2
  6
CONTINUOUS
 62
    3
 10
1307.5864
 20
2283.4232
 11
1307.2498
 21
2282.8254
  0
LINE
  8
1-2
  6
CONTINUOUS
 62
    3
 10
1307.2498
 20
2282.8254
 11
1306.8769
 21
2282.2793
  0
LINE
  8
1-2
  6
CONTINUOUS
 62
    3
 10
1306.8769
 20
2282.2793
 11
1306.4716
 21
2281.7845
  0
LINE
  8
1-2
  6
CONTINUOUS
 62
    3
 10
1306.4716
 20
2281.7845
 11
1306.0375
 21
2281.341
  0
LINE
  8
1-2
  6
CONTINUOUS
 62
    3
 10
1306.0375
 20
2281.341
 11
1305.5784
 21
2280.9488
  0
LINE
  8
1-2
  6
CONTINUOUS
 62
    3
 10
1305.5784
 20
2280.9488
 11
1305.0981
 21
2280.6066
  0
LINE
  8
1-2
  6
CONTINUOUS
 62
    3
 10
1305.0981
 20
2280.6066
 11
1304.601
 21
2280.3147
  0
LINE
  8
1-2
  6
CONTINUOUS
 62
    3
 10
1304.601
 20
2280.3147
 11
1304.091
 21
2280.0714
  0
LINE
  8
1-2
  6
CONTINUOUS
 62
    3
 10
1304.091
 20
2280.0714
 11
1303.5726
 21
2279.8762
  0
LINE
  8
1-2
  6
CONTINUOUS
 62
    3
 10
1303.5726
 20
2279.8762
 11
1303.0497
 21
2279.7275
  0
LINE
  8
1-2
  6
CONTINUOUS
 62
    3
 10
1303.0497
 20
2279.7275
 11
1302.5272
 21
2279.6243
  0
LINE
  8
1-2
  6
CONTINUOUS
 62
    3
 10
1302.5272
 20
2279.6243
 11
1302.0097
 21
2279.5644
  0
LINE
  8
1-2
  6
CONTINUOUS
 62
    3
 10
1302.0097
 20
2279.5644
 11
1301.5012
 21
2279.5469
  0
LINE
  8
1-2
  6
CONTINUOUS
 62
    3
 10
1301.5012
 20
2279.5469
 11
1301.0067
 21
2279.5686
  0
LINE
  8
1-2
  6
CONTINUOUS
 62
    3
 10
1301.0067
 20
2279.5686
 11
1300.5314
 21
2279.628
  0
LINE
  8
1-2
  6
CONTINUOUS
 62
    3
 10
1300.5314
 20
2279.628
 11
1300.0798
 21
2279.7233
  0
LINE
  8
1-2
  6
CONTINUOUS
 62
    3
 10
1300.0798
 20
2279.7233
 11
1299.6571
 21
2279.8512
  0
LINE
  8
1-2
  6
CONTINUOUS
 62
    3
 10
1383.3657
 20
2284.7718
 11
1391.667
 21
2284.7718
  0
LINE
  8
1-2
  6
CONTINUOUS
 62
    3
 10
1464.6744
 20
2201.439
 11
1383.3657
 21
2284.7718
  0
LINE
  8
1-2
  6
CONTINUOUS
 62
    3
 10
1441.7288
 20
2201.439
 11
1364.9192
 21
2284.7718
  0
LINE
  8
1-2
  6
CONTINUOUS
 62
    3
 10
1364.9192
 20
2284.7718
 11
1378.0019
 21
2284.7718
  0
LINE
  8
1-2
  6
CONTINUOUS
 62
    3
 10
1339.6558
 20
2284.7718
 11
1357.2314
 21
2284.7718
  0
LINE
  8
1-2
  6
CONTINUOUS
 62
    3
 10
1410.3035
 20
2201.439
 11
1339.6558
 21
2284.7718
  0
LINE
  8
1-2
  6
CONTINUOUS
 62
    3
 10
1308.1222
 20
2284.7718
 11
1329.8102
 21
2284.7718
  0
LINE
  8
1-2
  6
CONTINUOUS
 62
    3
 10
1007.526
 20
2084.7721
 11
1007.526
 21
1851.4391
  0
LINE
  8
1-2
  6
CONTINUOUS
 62
    3
 10
965.46099
 20
2084.7721
 11
965.46099
 21
1851.4391
  0
LINE
  8
1-2
  6
CONTINUOUS
 62
    3
 10
884.17057
 20
2084.7721
 11
884.17057
 21
1851.4391
  0
LINE
  8
1-2
  6
CONTINUOUS
 62
    3
 10
845.72807
 20
2084.7721
 11
845.72807
 21
1851.4391
  0
LINE
  8
1-2
  6
CONTINUOUS
 62
    3
 10
775.09625
 20
2084.7721
 11
775.09625
 21
1851.4391
  0
LINE
  8
1-2
  6
CONTINUOUS
 62
    3
 10
743.58701
 20
2084.7721
 11
743.58701
 21
1851.4391
  0
LINE
  8
1-2
  6
CONTINUOUS
 62
    3
 10
689.69647
 20
2084.7721
 11
689.69647
 21
1851.4391
  0
LINE
  8
1-2
  6
CONTINUOUS
 62
    3
 10
965.46099
 20
1851.4391
 11
884.17057
 21
1871.6401
  0
LINE
  8
1-2
  6
CONTINUOUS
 62
    3
 10
743.58701
 20
1851.4391
 11
689.69647
 21
1871.6401
  0
LINE
  8
1-2
  6
CONTINUOUS
 62
    3
 10
789.35447
 20
2084.7721
 11
789.35447
 21
1851.4391
  0
LINE
  8
1-2
  6
CONTINUOUS
 62
    3
 10
806.02103
 20
2084.7721
 11
806.02103
 21
1851.4391
  0
LINE
  8
1-2
  6
CONTINUOUS
 62
    3
 10
845.72807
 20
1851.4391
 11
806.02103
 21
1862.7956
  0
LINE
  8
1-2
  6
CONTINUOUS
 62
    3
 10
789.35447
 20
1867.5623
 11
775.09637
 21
1871.6401
  0
LINE
  8
1-2
  6
CONTINUOUS
 62
    3
 10
624.99986
 20
1751.4387
 11
624.99986
 21
1834.773
  0
LINE
  8
1-2
  6
CONTINUOUS
 62
    3
 10
624.99986
 20
1734.7719
 11
708.33302
 21
1651.4391
  0
LINE
  8
1-2
  6
CONTINUOUS
 62
    3
 10
975.96061
 20
1658.3271
 11
976.64651
 21
1658.1435
  0
LINE
  8
1-2
  6
CONTINUOUS
 62
    3
 10
976.64651
 20
1658.1435
 11
977.29084
 21
1657.8941
  0
LINE
  8
1-2
  6
CONTINUOUS
 62
    3
 10
977.29084
 20
1657.8941
 11
977.89398
 21
1657.5823
  0
LINE
  8
1-2
  6
CONTINUOUS
 62
    3
 10
977.89398
 20
1657.5823
 11
978.4569
 21
1657.2144
  0
LINE
  8
1-2
  6
CONTINUOUS
 62
    3
 10
978.4569
 20
1657.2144
 11
978.98024
 21
1656.7945
  0
LINE
  8
1-2
  6
CONTINUOUS
 62
    3
 10
978.98024
 20
1656.7945
 11
979.46485
 21
1656.3268
  0
LINE
  8
1-2
  6
CONTINUOUS
 62
    3
 10
979.46485
 20
1656.3268
 11
979.91148
 21
1655.8164
  0
LINE
  8
1-2
  6
CONTINUOUS
 62
    3
 10
979.91148
 20
1655.8164
 11
980.32099
 21
1655.2678
  0
LINE
  8
1-2
  6
CONTINUOUS
 62
    3
 10
980.32099
 20
1655.2678
 11
980.69376
 21
1654.686
  0
LINE
  8
1-2
  6
CONTINUOUS
 62
    3
 10
980.69376
 20
1654.686
 11
981.03102
 21
1654.0751
  0
LINE
  8
1-2
  6
CONTINUOUS
 62
    3
 10
981.03102
 20
1654.0751
 11
981.33314
 21
1653.4402
  0
LINE
  8
1-2
  6
CONTINUOUS
 62
    3
 10
981.33314
 20
1653.4402
 11
981.60112
 21
1652.7865
  0
LINE
  8
1-2
  6
CONTINUOUS
 62
    3
 10
981.60112
 20
1652.7865
 11
981.83557
 21
1652.1179
  0
LINE
  8
1-2
  6
CONTINUOUS
 62
    3
 10
981.83557
 20
1652.1179
 11
982.03736
 21
1651.4391
  0
LINE
  8
1-2
  6
CONTINUOUS
 62
    3
 10
972.19321
 20
1658.3642
 11
971.40004
 21
1658.1094
  0
LINE
  8
1-2
  6
CONTINUOUS
 62
    3
 10
971.40004
 20
1658.1094
 11
970.65587
 21
1657.8075
  0
LINE
  8
1-2
  6
CONTINUOUS
 62
    3
 10
970.65587
 20
1657.8075
 11
969.95994
 21
1657.4626
  0
LINE
  8
1-2
  6
CONTINUOUS
 62
    3
 10
969.95994
 20
1657.4626
 11
969.31215
 21
1657.0758
  0
LINE
  8
1-2
  6
CONTINUOUS
 62
    3
 10
969.31215
 20
1657.0758
 11
968.71173
 21
1656.6502
  0
LINE
  8
1-2
  6
CONTINUOUS
 62
    3
 10
968.71173
 20
1656.6502
 11
968.15809
 21
1656.188
  0
LINE
  8
1-2
  6
CONTINUOUS
 62
    3
 10
968.15809
 20
1656.188
 11
967.65096
 21
1655.6907
  0
LINE
  8
1-2
  6
CONTINUOUS
 62
    3
 10
967.65096
 20
1655.6907
 11
967.18961
 21
1655.1614
  0
LINE
  8
1-2
  6
CONTINUOUS
 62
    3
 10
967.18961
 20
1655.1614
 11
966.77341
 21
1654.6022
  0
LINE
  8
1-2
  6
CONTINUOUS
 62
    3
 10
966.77341
 20
1654.6022
 11
966.40213
 21
1654.0155
  0
LINE
  8
1-2
  6
CONTINUOUS
 62
    3
 10
966.40213
 20
1654.0155
 11
966.07501
 21
1653.4031
  0
LINE
  8
1-2
  6
CONTINUOUS
 62
    3
 10
966.07501
 20
1653.4031
 11
965.79169
 21
1652.7679
  0
LINE
  8
1-2
  6
CONTINUOUS
 62
    3
 10
965.79169
 20
1652.7679
 11
965.55155
 21
1652.1129
  0
LINE
  8
1-2
  6
CONTINUOUS
 62
    3
 10
965.55155
 20
1652.1129
 11
965.35397
 21
1651.4391
  0
LINE
  8
1-2
  6
CONTINUOUS
 62
    3
 10
932.63909
 20
1651.4391
 11
931.87079
 21
1652.5576
  0
LINE
  8
1-2
  6
CONTINUOUS
 62
    3
 10
931.87079
 20
1652.5576
 11
931.09358
 21
1653.553
  0
LINE
  8
1-2
  6
CONTINUOUS
 62
    3
 10
931.09358
 20
1653.553
 11
930.31055
 21
1654.4314
  0
LINE
  8
1-2
  6
CONTINUOUS
 62
    3
 10
930.31055
 20
1654.4314
 11
929.52469
 21
1655.2002
  0
LINE
  8
1-2
  6
CONTINUOUS
 62
    3
 10
929.52469
 20
1655.2002
 11
928.73919
 21
1655.8658
  0
LINE
  8
1-2
  6
CONTINUOUS
 62
    3
 10
928.73919
 20
1655.8658
 11
927.95691
 21
1656.4354
  0
LINE
  8
1-2
  6
CONTINUOUS
 62
    3
 10
927.95691
 20
1656.4354
 11
927.18094
 21
1656.9157
  0
LINE
  8
1-2
  6
CONTINUOUS
 62
    3
 10
927.18094
 20
1656.9157
 11
926.41437
 21
1657.3141
  0
LINE
  8
1-2
  6
CONTINUOUS
 62
    3
 10
926.41437
 20
1657.3141
 11
925.66029
 21
1657.6375
  0
LINE
  8
1-2
  6
CONTINUOUS
 62
    3
 10
925.66029
 20
1657.6375
 11
924.92169
 21
1657.8916
  0
LINE
  8
1-2
  6
CONTINUOUS
 62
    3
 10
924.92169
 20
1657.8916
 11
924.20164
 21
1658.0854
  0
LINE
  8
1-2
  6
CONTINUOUS
 62
    3
 10
924.20164
 20
1658.0854
 11
923.50336
 21
1658.2232
  0
LINE
  8
1-2
  6
CONTINUOUS
 62
    3
 10
923.50336
 20
1658.2232
 11
922.82958
 21
1658.3148
  0
LINE
  8
1-2
  6
CONTINUOUS
 62
    3
 10
922.82958
 20
1658.3148
 11
922.18364
 21
1658.3642
  0
LINE
  8
1-2
  6
CONTINUOUS
 62
    3
 10
916.68615
 20
1651.4391
 11
916.70916
 21
1652.2438
  0
LINE
  8
1-2
  6
CONTINUOUS
 62
    3
 10
916.70916
 20
1652.2438
 11
916.77869
 21
1652.9874
  0
LINE
  8
1-2
  6
CONTINUOUS
 62
    3
 10
916.77869
 20
1652.9874
 11
916.89709
 21
1653.6735
  0
LINE
  8
1-2
  6
CONTINUOUS
 62
    3
 10
916.89709
 20
1653.6735
 11
917.06733
 21
1654.3045
  0
LINE
  8
1-2
  6
CONTINUOUS
 62
    3
 10
917.06733
 20
1654.3045
 11
917.292
 21
1654.8852
  0
LINE
  8
1-2
  6
CONTINUOUS
 62
    3
 10
917.292
 20
1654.8852
 11
917.57334
 21
1655.418
  0
LINE
  8
1-2
  6
CONTINUOUS
 62
    3
 10
917.57334
 20
1655.418
 11
917.91419
 21
1655.9059
  0
LINE
  8
1-2
  6
CONTINUOUS
 62
    3
 10
917.91419
 20
1655.9059
 11
918.31715
 21
1656.3533
  0
LINE
  8
1-2
  6
CONTINUOUS
 62
    3
 10
918.31715
 20
1656.3533
 11
918.78468
 21
1656.7628
  0
LINE
  8
1-2
  6
CONTINUOUS
 62
    3
 10
918.78468
 20
1656.7628
 11
919.31952
 21
1657.1382
  0
LINE
  8
1-2
  6
CONTINUOUS
 62
    3
 10
919.31952
 20
1657.1382
 11
919.92439
 21
1657.4824
  0
LINE
  8
1-2
  6
CONTINUOUS
 62
    3
 10
919.92439
 20
1657.4824
 11
920.60151
 21
1657.7996
  0
LINE
  8
1-2
  6
CONTINUOUS
 62
    3
 10
920.60151
 20
1657.7996
 11
921.35385
 21
1658.0928
  0
LINE
  8
1-2
  6
CONTINUOUS
 62
    3
 10
921.35385
 20
1658.0928
 11
922.18364
 21
1658.3642
  0
LINE
  8
1-2
  6
CONTINUOUS
 62
    3
 10
870.90409
 20
1651.4391
 11
871.29591
 21
1652.3844
  0
LINE
  8
1-2
  6
CONTINUOUS
 62
    3
 10
871.29591
 20
1652.3844
 11
871.70393
 21
1653.2417
  0
LINE
  8
1-2
  6
CONTINUOUS
 62
    3
 10
871.70393
 20
1653.2417
 11
872.12792
 21
1654.0155
  0
LINE
  8
1-2
  6
CONTINUOUS
 62
    3
 10
872.12792
 20
1654.0155
 11
872.56738
 21
1654.7096
  0
LINE
  8
1-2
  6
CONTINUOUS
 62
    3
 10
872.56738
 20
1654.7096
 11
873.0218
 21
1655.3289
  0
LINE
  8
1-2
  6
CONTINUOUS
 62
    3
 10
873.0218
 20
1655.3289
 11
873.49095
 21
1655.8775
  0
LINE
  8
1-2
  6
CONTINUOUS
 62
    3
 10
873.49095
 20
1655.8775
 11
873.9742
 21
1656.359
  0
LINE
  8
1-2
  6
CONTINUOUS
 62
    3
 10
873.9742
 20
1656.359
 11
874.47143
 21
1656.7782
  0
LINE
  8
1-2
  6
CONTINUOUS
 62
    3
 10
874.47143
 20
1656.7782
 11
874.98189
 21
1657.1389
  0
LINE
  8
1-2
  6
CONTINUOUS
 62
    3
 10
874.98189
 20
1657.1389
 11
875.50548
 21
1657.4453
  0
LINE
  8
1-2
  6
CONTINUOUS
 62
    3
 10
875.50548
 20
1657.4453
 11
876.04168
 21
1657.7023
  0
LINE
  8
1-2
  6
CONTINUOUS
 62
    3
 10
876.04168
 20
1657.7023
 11
876.59025
 21
1657.9139
  0
LINE
  8
1-2
  6
CONTINUOUS
 62
    3
 10
876.59025
 20
1657.9139
 11
877.15033
 21
1658.0829
  0
LINE
  8
1-2
  6
CONTINUOUS
 62
    3
 10
877.15033
 20
1658.0829
 11
877.72204
 21
1658.2158
  0
LINE
  8
1-2
  6
CONTINUOUS
 62
    3
 10
878.97904
 20
1658.2158
 11
879.57512
 21
1658.1027
  0
LINE
  8
1-2
  6
CONTINUOUS
 62
    3
 10
879.57512
 20
1658.1027
 11
880.1665
 21
1657.9228
  0
LINE
  8
1-2
  6
CONTINUOUS
 62
    3
 10
880.1665
 20
1657.9228
 11
880.75293
 21
1657.6759
  0
LINE
  8
1-2
  6
CONTINUOUS
 62
    3
 10
880.75293
 20
1657.6759
 11
881.33479
 21
1657.3621
  0
LINE
  8
1-2
  6
CONTINUOUS
 62
    3
 10
881.33479
 20
1657.3621
 11
881.91145
 21
1656.9818
  0
LINE
  8
1-2
  6
CONTINUOUS
 62
    3
 10
881.91145
 20
1656.9818
 11
882.48353
 21
1656.5339
  0
LINE
  8
1-2
  6
CONTINUOUS
 62
    3
 10
882.48353
 20
1656.5339
 11
883.05066
 21
1656.0198
  0
LINE
  8
1-2
  6
CONTINUOUS
 62
    3
 10
883.05066
 20
1656.0198
 11
883.61309
 21
1655.4385
  0
LINE
  8
1-2
  6
CONTINUOUS
 62
    3
 10
883.61309
 20
1655.4385
 11
884.17057
 21
1654.7907
  0
LINE
  8
1-2
  6
CONTINUOUS
 62
    3
 10
828.99891
 20
1651.4391
 11
829.11236
 21
1652.1592
  0
LINE
  8
1-2
  6
CONTINUOUS
 62
    3
 10
829.11236
 20
1652.1592
 11
829.2732
 21
1652.8303
  0
LINE
  8
1-2
  6
CONTINUOUS
 62
    3
 10
829.2732
 20
1652.8303
 11
829.47796
 21
1653.4533
  0
LINE
  8
1-2
  6
CONTINUOUS
 62
    3
 10
829.47796
 20
1653.4533
 11
829.72267
 21
1654.0306
  0
LINE
  8
1-2
  6
CONTINUOUS
 62
    3
 10
829.72267
 20
1654.0306
 11
830.00389
 21
1654.5636
  0
LINE
  8
1-2
  6
CONTINUOUS
 62
    3
 10
830.00389
 20
1654.5636
 11
830.31826
 21
1655.0555
  0
LINE
  8
1-2
  6
CONTINUOUS
 62
    3
 10
830.31826
 20
1655.0555
 11
830.66257
 21
1655.5071
  0
LINE
  8
1-2
  6
CONTINUOUS
 62
    3
 10
830.66257
 20
1655.5071
 11
831.03398
 21
1655.919
  0
LINE
  8
1-2
  6
CONTINUOUS
 62
    3
 10
831.03398
 20
1655.919
 11
831.42976
 21
1656.2944
  0
LINE
  8
1-2
  6
CONTINUOUS
 62
    3
 10
831.42976
 20
1656.2944
 11
831.84694
 21
1656.6329
  0
LINE
  8
1-2
  6
CONTINUOUS
 62
    3
 10
831.84694
 20
1656.6329
 11
832.28355
 21
1656.9373
  0
LINE
  8
1-2
  6
CONTINUOUS
 62
    3
 10
832.28355
 20
1656.9373
 11
832.73711
 21
1657.2077
  0
LINE
  8
1-2
  6
CONTINUOUS
 62
    3
 10
832.73711
 20
1657.2077
 11
833.20564
 21
1657.4453
  0
LINE
  8
1-2
  6
CONTINUOUS
 62
    3
 10
833.20564
 20
1657.4453
 11
833.68728
 21
1657.6506
  0
LINE
  8
1-2
  6
CONTINUOUS
 62
    3
 10
833.68728
 20
1657.6506
 11
834.18043
 21
1657.8243
  0
LINE
  8
1-2
  6
CONTINUOUS
 62
    3
 10
834.18043
 20
1657.8243
 11
834.68372
 21
1657.9678
  0
LINE
  8
1-2
  6
CONTINUOUS
 62
    3
 10
834.68372
 20
1657.9678
 11
835.19542
 21
1658.0804
  0
LINE
  8
1-2
  6
CONTINUOUS
 62
    3
 10
835.19542
 20
1658.0804
 11
835.71492
 21
1658.1628
  0
LINE
  8
1-2
  6
CONTINUOUS
 62
    3
 10
835.71492
 20
1658.1628
 11
836.2411
 21
1658.2158
  0
LINE
  8
1-2
  6
CONTINUOUS
 62
    3
 10
836.37386
 20
1658.2098
 11
836.67017
 21
1658.1806
  0
LINE
  8
1-2
  6
CONTINUOUS
 62
    3
 10
836.67017
 20
1658.1806
 11
836.9614
 21
1658.1386
  0
LINE
  8
1-2
  6
CONTINUOUS
 62
    3
 10
836.9614
 20
1658.1386
 11
837.24732
 21
1658.0836
  0
LINE
  8
1-2
  6
CONTINUOUS
 62
    3
 10
837.24732
 20
1658.0836
 11
837.52829
 21
1658.0161
  0
LINE
  8
1-2
  6
CONTINUOUS
 62
    3
 10
837.52829
 20
1658.0161
 11
837.80418
 21
1657.9357
  0
LINE
  8
1-2
  6
CONTINUOUS
 62
    3
 10
837.80418
 20
1657.9357
 11
838.07501
 21
1657.8421
  0
LINE
  8
1-2
  6
CONTINUOUS
 62
    3
 10
838.07501
 20
1657.8421
 11
838.34063
 21
1657.7365
  0
LINE
  8
1-2
  6
CONTINUOUS
 62
    3
 10
838.34063
 20
1657.7365
 11
838.60119
 21
1657.6177
  0
LINE
  8
1-2
  6
CONTINUOUS
 62
    3
 10
838.60119
 20
1657.6177
 11
838.85654
 21
1657.4858
  0
LINE
  8
1-2
  6
CONTINUOUS
 62
    3
 10
716.6345
 20
1651.4391
 11
716.73595
 21
1652.1971
  0
LINE
  8
1-2
  6
CONTINUOUS
 62
    3
 10
716.73595
 20
1652.1971
 11
716.8431
 21
1652.8896
  0
LINE
  8
1-2
  6
CONTINUOUS
 62
    3
 10
716.8431
 20
1652.8896
 11
716.95642
 21
1653.5169
  0
LINE
  8
1-2
  6
CONTINUOUS
 62
    3
 10
716.95642
 20
1653.5169
 11
717.07556
 21
1654.0786
  0
LINE
  8
1-2
  6
CONTINUOUS
 62
    3
 10
717.07556
 20
1654.0786
 11
717.20052
 21
1654.5749
  0
LINE
  8
1-2
  6
CONTINUOUS
 62
    3
 10
717.20052
 20
1654.5749
 11
717.33142
 21
1655.0055
  0
LINE
  8
1-2
  6
CONTINUOUS
 62
    3
 10
717.33142
 20
1655.0055
 11
717.46813
 21
1655.371
  0
LINE
  8
1-2
  6
CONTINUOUS
 62
    3
 10
717.46813
 20
1655.371
 11
717.61078
 21
1655.6711
  0
LINE
  8
1-2
  6
CONTINUOUS
 62
    3
 10
717.61078
 20
1655.6711
 11
717.75924
 21
1655.9059
  0
LINE
  8
1-2
  6
CONTINUOUS
 62
    3
 10
735.08077
 20
1651.4391
 11
735.13694
 21
1652.0397
  0
LINE
  8
1-2
  6
CONTINUOUS
 62
    3
 10
735.13694
 20
1652.0397
 11
735.22973
 21
1652.6071
  0
LINE
  8
1-2
  6
CONTINUOUS
 62
    3
 10
735.22973
 20
1652.6071
 11
735.35494
 21
1653.1415
  0
LINE
  8
1-2
  6
CONTINUOUS
 62
    3
 10
735.35494
 20
1653.1415
 11
735.50934
 21
1653.6438
  0
LINE
  8
1-2
  6
CONTINUOUS
 62
    3
 10
735.50934
 20
1653.6438
 11
735.68935
 21
1654.1122
  0
LINE
  8
1-2
  6
CONTINUOUS
 62
    3
 10
735.68935
 20
1654.1122
 11
735.89151
 21
1654.5477
  0
LINE
  8
1-2
  6
CONTINUOUS
 62
    3
 10
735.89151
 20
1654.5477
 11
736.11185
 21
1654.9496
  0
LINE
  8
1-2
  6
CONTINUOUS
 62
    3
 10
736.11185
 20
1654.9496
 11
736.34692
 21
1655.3183
  0
LINE
  8
1-2
  6
CONTINUOUS
 62
    3
 10
736.34692
 20
1655.3183
 11
736.59312
 21
1655.653
  0
LINE
  8
1-2
  6
CONTINUOUS
 62
    3
 10
736.59312
 20
1655.653
 11
736.84687
 21
1655.9542
  0
LINE
  8
1-2
  6
CONTINUOUS
 62
    3
 10
736.84687
 20
1655.9542
 11
737.10458
 21
1656.2204
  0
LINE
  8
1-2
  6
CONTINUOUS
 62
    3
 10
737.10458
 20
1656.2204
 11
737.36266
 21
1656.453
  0
LINE
  8
1-2
  6
CONTINUOUS
 62
    3
 10
737.36266
 20
1656.453
 11
737.61753
 21
1656.651
  0
LINE
  8
1-2
  6
CONTINUOUS
 62
    3
 10
737.61753
 20
1656.651
 11
737.86558
 21
1656.8143
  0
LINE
  8
1-2
  6
CONTINUOUS
 62
    3
 10
760.34426
 20
1651.4391
 11
760.51177
 21
1652.1072
  0
LINE
  8
1-2
  6
CONTINUOUS
 62
    3
 10
760.51177
 20
1652.1072
 11
760.71579
 21
1652.7325
  0
LINE
  8
1-2
  6
CONTINUOUS
 62
    3
 10
760.71579
 20
1652.7325
 11
760.95469
 21
1653.316
  0
LINE
  8
1-2
  6
CONTINUOUS
 62
    3
 10
760.95469
 20
1653.316
 11
761.227
 21
1653.8574
  0
LINE
  8
1-2
  6
CONTINUOUS
 62
    3
 10
761.227
 20
1653.8574
 11
761.53135
 21
1654.3572
  0
LINE
  8
1-2
  6
CONTINUOUS
 62
    3
 10
761.53135
 20
1654.3572
 11
761.86613
 21
1654.816
  0
LINE
  8
1-2
  6
CONTINUOUS
 62
    3
 10
761.86613
 20
1654.816
 11
762.23012
 21
1655.2341
  0
LINE
  8
1-2
  6
CONTINUOUS
 62
    3
 10
762.23012
 20
1655.2341
 11
762.62169
 21
1655.611
  0
LINE
  8
1-2
  6
CONTINUOUS
 62
    3
 10
762.62169
 20
1655.611
 11
763.03937
 21
1655.9482
  0
LINE
  8
1-2
  6
CONTINUOUS
 62
    3
 10
763.03937
 20
1655.9482
 11
763.48179
 21
1656.2457
  0
LINE
  8
1-2
  6
CONTINUOUS
 62
    3
 10
763.48179
 20
1656.2457
 11
763.94747
 21
1656.503
  0
LINE
  8
1-2
  6
CONTINUOUS
 62
    3
 10
763.94747
 20
1656.503
 11
764.43493
 21
1656.7212
  0
LINE
  8
1-2
  6
CONTINUOUS
 62
    3
 10
764.43493
 20
1656.7212
 11
764.94255
 21
1656.9009
  0
LINE
  8
1-2
  6
CONTINUOUS
 62
    3
 10
764.94255
 20
1656.9009
 11
765.46923
 21
1657.0419
  0
LINE
  8
1-2
  6
CONTINUOUS
 62
    3
 10
791.86364
 20
1651.4391
 11
792.11701
 21
1652.1394
  0
LINE
  8
1-2
  6
CONTINUOUS
 62
    3
 10
792.11701
 20
1652.1394
 11
792.4137
 21
1652.7882
  0
LINE
  8
1-2
  6
CONTINUOUS
 62
    3
 10
792.4137
 20
1652.7882
 11
792.75021
 21
1653.3858
  0
LINE
  8
1-2
  6
CONTINUOUS
 62
    3
 10
792.75021
 20
1653.3858
 11
793.12311
 21
1653.9321
  0
LINE
  8
1-2
  6
CONTINUOUS
 62
    3
 10
793.12311
 20
1653.9321
 11
793.52841
 21
1654.4265
  0
LINE
  8
1-2
  6
CONTINUOUS
 62
    3
 10
793.52841
 20
1654.4265
 11
793.96254
 21
1654.8704
  0
LINE
  8
1-2
  6
CONTINUOUS
 62
    3
 10
793.96254
 20
1654.8704
 11
794.42167
 21
1655.2626
  0
LINE
  8
1-2
  6
CONTINUOUS
 62
    3
 10
794.42167
 20
1655.2626
 11
794.9017
 21
1655.6043
  0
LINE
  8
1-2
  6
CONTINUOUS
 62
    3
 10
794.9017
 20
1655.6043
 11
795.39893
 21
1655.8968
  0
LINE
  8
1-2
  6
CONTINUOUS
 62
    3
 10
795.39893
 20
1655.8968
 11
795.90878
 21
1656.1398
  0
LINE
  8
1-2
  6
CONTINUOUS
 62
    3
 10
795.90878
 20
1656.1398
 11
796.42742
 21
1656.3352
  0
LINE
  8
1-2
  6
CONTINUOUS
 62
    3
 10
796.42742
 20
1656.3352
 11
796.95013
 21
1656.4837
  0
LINE
  8
1-2
  6
CONTINUOUS
 62
    3
 10
796.95013
 20
1656.4837
 11
797.4726
 21
1656.5871
  0
LINE
  8
1-2
  6
CONTINUOUS
 62
    3
 10
797.4726
 20
1656.5871
 11
797.99049
 21
1656.647
  0
LINE
  8
1-2
  6
CONTINUOUS
 62
    3
 10
797.99049
 20
1656.647
 11
798.49886
 21
1656.6643
  0
LINE
  8
1-2
  6
CONTINUOUS
 62
    3
 10
798.49886
 20
1656.6643
 11
798.99312
 21
1656.6428
  0
LINE
  8
1-2
  6
CONTINUOUS
 62
    3
 10
798.99312
 20
1656.6428
 11
799.4687
 21
1656.5834
  0
LINE
  8
1-2
  6
CONTINUOUS
 62
    3
 10
799.4687
 20
1656.5834
 11
799.92028
 21
1656.4882
  0
LINE
  8
1-2
  6
CONTINUOUS
 62
    3
 10
799.92028
 20
1656.4882
 11
800.3429
 21
1656.36
  0
LINE
  8
1-2
  6
CONTINUOUS
 62
    3
 10
716.6345
 20
1651.4391
 11
708.33302
 21
1651.4391
  0
LINE
  8
1-2
  6
CONTINUOUS
 62
    3
 10
635.32577
 20
1734.7724
 11
716.6345
 21
1651.4391
  0
LINE
  8
1-2
  6
CONTINUOUS
 62
    3
 10
721.99813
 20
1651.4391
 11
641.99749
 21
1734.7724
  0
LINE
  8
1-2
  6
CONTINUOUS
 62
    3
 10
658.27124
 20
1734.7724
 11
735.08077
 21
1651.4391
  0
LINE
  8
1-2
  6
CONTINUOUS
 62
    3
 10
735.08077
 20
1651.4391
 11
721.99813
 21
1651.4391
  0
LINE
  8
1-2
  6
CONTINUOUS
 62
    3
 10
742.7686
 20
1651.4391
 11
667.83392
 21
1734.7724
  0
LINE
  8
1-2
  6
CONTINUOUS
 62
    3
 10
760.34426
 20
1651.4391
 11
742.7686
 21
1651.4391
  0
LINE
  8
1-2
  6
CONTINUOUS
 62
    3
 10
689.69647
 20
1734.7724
 11
760.34426
 21
1651.4391
  0
LINE
  8
1-2
  6
CONTINUOUS
 62
    3
 10
770.18989
 20
1651.4391
 11
701.94338
 21
1734.7724
  0
LINE
  8
1-2
  6
CONTINUOUS
 62
    3
 10
791.87774
 20
1651.4391
 11
770.18989
 21
1651.4391
  0
LINE
  8
1-2
  6
CONTINUOUS
 62
    3
 10
728.92113
 20
1734.7724
 11
791.87774
 21
1651.4391
  0
LINE
  8
1-2
  6
CONTINUOUS
 62
    3
 10
803.668
 20
1651.4391
 11
743.58701
 21
1734.7724
  0
LINE
  8
1-2
  6
CONTINUOUS
 62
    3
 10
828.99891
 20
1651.4391
 11
803.668
 21
1651.4391
  0
LINE
  8
1-2
  6
CONTINUOUS
 62
    3
 10
775.09625
 20
1734.7724
 11
828.99891
 21
1651.4391
  0
LINE
  8
1-2
  6
CONTINUOUS
 62
    3
 10
842.47869
 20
1651.4391
 11
791.86364
 21
1734.7724
  0
LINE
  8
1-2
  6
CONTINUOUS
 62
    3
 10
870.90409
 20
1651.4391
 11
842.47869
 21
1651.4391
  0
LINE
  8
1-2
  6
CONTINUOUS
 62
    3
 10
885.78141
 20
1651.4391
 11
845.72807
 21
1734.7724
  0
LINE
  8
1-2
  6
CONTINUOUS
 62
    3
 10
916.68615
 20
1651.4391
 11
885.78141
 21
1651.4391
  0
LINE
  8
1-2
  6
CONTINUOUS
 62
    3
 10
884.17057
 20
1734.7724
 11
916.68615
 21
1651.4391
  0
LINE
  8
1-2
  6
CONTINUOUS
 62
    3
 10
904.01426
 20
1734.7724
 11
932.63909
 21
1651.4391
  0
LINE
  8
1-2
  6
CONTINUOUS
 62
    3
 10
965.35397
 20
1651.4391
 11
932.63909
 21
1651.4391
  0
LINE
  8
1-2
  6
CONTINUOUS
 62
    3
 10
965.35397
 20
1651.4391
 11
944.70858
 21
1734.7724
  0
LINE
  8
1-2
  6
CONTINUOUS
 62
    3
 10
965.46087
 20
1734.7724
 11
982.03736
 21
1651.4391
  0
LINE
  8
1-2
  6
CONTINUOUS
 62
    3
 10
1015.8543
 20
1651.4391
 11
982.03736
 21
1651.4391
  0
LINE
  8
1-2
  6
CONTINUOUS
 62
    3
 10
1015.8543
 20
1651.4391
 11
1007.526
 21
1734.7724
  0
LINE
  8
1-2
  6
CONTINUOUS
 62
    3
 10
1032.9065
 20
1651.4391
 11
1028.7374
 21
1734.7724
  0
LINE
  8
1-2
  6
CONTINUOUS
 62
    3
 10
827.22217
 20
1734.7724
 11
870.90421
 21
1651.4391
  0
LINE
  8
1-2
  6
CONTINUOUS
 62
    3
 10
878.27915
 20
1651.4391
 11
878.27915
 21
1526.4391
  0
LINE
  8
1-2
  6
CONTINUOUS
 62
    3
 10
844.94579
 20
1651.4391
 11
844.94579
 21
1526.4391
  0
LINE
  8
1-8
  6
CONTINUOUS
 62
    7
 10
266.66702
 20
1459.7722
 11
266.66702
 21
2409.7722
  0
LINE
  8
1-8
  6
CONTINUOUS
 62
    7
 10
624.99999
 20
2555.2124
 11
624.99999
 21
2334.1036
  0
LINE
  8
1-8
  6
CONTINUOUS
 62
    7
 10
787.50004
 20
1336.6449
 11
787.50004
 21
1433.4377
  0
LINE
  8
1-8
  6
CONTINUOUS
 62
    7
 10
1312.5
 20
1433.4377
 11
1312.5
 21
1336.6445
  0
LINE
  8
1-2
  6
CONTINUOUS
 62
    3
 10
1340.3162
 20
2242.1587
 11
1308.1222
 21
2284.7718
  0
LINE
  8
1-2
  6
CONTINUOUS
 62
    3
 10
1050
 20
2193.1052
 11
1425.2783
 21
2193.1052
  0
LINE
  8
1-2
  6
CONTINUOUS
 62
    3
 10
1050
 20
2409.7722
 11
1425.2783
 21
2193.1052
  0
LINE
  8
1-2
  6
CONTINUOUS
 62
    3
 10
1425.2783
 20
2176.4394
 11
1050
 21
2176.4394
  0
LINE
  8
1-2
  6
CONTINUOUS
 62
    3
 10
1433.6111
 20
2184.7724
 11
1475.0013
 21
2184.7724
  0
LINE
  8
1-2
  6
CONTINUOUS
 62
    3
 10
1425.2783
 20
2101.4387
 11
1475.0013
 21
2101.4387
  0
LINE
  8
1-2
  6
CONTINUOUS
 62
    3
 10
1425.2783
 20
2084.7724
 11
1475.0013
 21
2084.7724
  0
LINE
  8
1-2
  6
CONTINUOUS
 62
    3
 10
624.99986
 20
2101.4387
 11
1050
 21
2101.4387
  0
LINE
  8
1-2
  6
CONTINUOUS
 62
    3
 10
624.99986
 20
2084.7724
 11
1050
 21
2084.7724
  0
LINE
  8
1-2
  6
CONTINUOUS
 62
    3
 10
1050
 20
1861.5396
 11
1007.526
 21
1871.6401
  0
LINE
  8
1-2
  6
CONTINUOUS
 62
    3
 10
1425.2783
 20
1759.7715
 11
1312.5011
 21
1759.7715
  0
LINE
  8
1-2
  6
CONTINUOUS
 62
    3
 10
1425.2783
 20
1851.4391
 11
1475.0025
 21
1851.4391
  0
LINE
  8
1-2
  6
CONTINUOUS
 62
    3
 10
1425.2783
 20
1834.7728
 11
1475.0025
 21
1834.7728
  0
LINE
  8
1-2
  6
CONTINUOUS
 62
    3
 10
1425.2783
 20
2176.4394
 11
1425.2783
 21
1759.7715
  0
LINE
  8
1-2
  6
CONTINUOUS
 62
    3
 10
625.0011
 20
1851.4391
 11
1050
 21
1851.4391
  0
LINE
  8
1-2
  6
CONTINUOUS
 62
    3
 10
625.0011
 20
1834.7728
 11
1050
 21
1834.7728
  0
LINE
  8
1-2
  6
CONTINUOUS
 62
    3
 10
624.99999
 20
1751.4387
 11
1050
 21
1751.4387
  0
LINE
  8
1-2
  6
CONTINUOUS
 62
    3
 10
624.99999
 20
1734.7719
 11
1050
 21
1734.7719
  0
LINE
  8
1-2
  6
CONTINUOUS
 62
    3
 10
1312.5011
 20
1751.4387
 11
1475.0013
 21
1751.4387
  0
LINE
  8
1-2
  6
CONTINUOUS
 62
    3
 10
624.99986
 20
1734.7724
 11
1050
 21
1734.7724
  0
LINE
  8
1-2
  6
CONTINUOUS
 62
    3
 10
1287.8395
 20
1778.7202
 11
1267.0341
 21
1812.0531
  0
LINE
  8
1-2
  6
CONTINUOUS
 62
    3
 10
1263.256
 20
1778.7202
 11
1244.6009
 21
1812.0531
  0
LINE
  8
1-2
  6
CONTINUOUS
 62
    3
 10
1238.7496
 20
1778.7202
 11
1222.2383
 21
1812.0531
  0
LINE
  8
1-2
  6
CONTINUOUS
 62
    3
 10
1214.3207
 20
1778.7202
 11
1199.9464
 21
1812.0531
  0
LINE
  8
1-2
  6
CONTINUOUS
 62
    3
 10
1189.9684
 20
1778.7202
 11
1177.7244
 21
1812.0531
  0
LINE
  8
1-2
  6
CONTINUOUS
 62
    3
 10
1165.6926
 20
1778.7202
 11
1155.5723
 21
1812.0531
  0
LINE
  8
1-2
  6
CONTINUOUS
 62
    3
 10
1141.493
 20
1778.7202
 11
1133.4895
 21
1812.0531
  0
LINE
  8
1-2
  6
CONTINUOUS
 62
    3
 10
1117.3688
 20
1778.7202
 11
1111.4758
 21
1812.0531
  0
LINE
  8
1-2
  6
CONTINUOUS
 62
    3
 10
1093.3205
 20
1778.7202
 11
1089.531
 21
1812.0531
  0
LINE
  8
1-2
  6
CONTINUOUS
 62
    3
 10
1067.6545
 20
1812.0531
 11
1069.347
 21
1778.7202
  0
LINE
  8
1-2
  6
CONTINUOUS
 62
    3
 10
1289.5382
 20
1812.0531
 11
1050
 21
1812.0531
  0
LINE
  8
1-2
  6
CONTINUOUS
 62
    3
 10
1312.5011
 20
1778.7202
 11
1050
 21
1778.7202
  0
LINE
  8
1-2
  6
CONTINUOUS
 62
    3
 10
1289.5382
 20
1812.0531
 11
1312.5011
 21
1778.7202
  0
LINE
  8
1-2
  6
CONTINUOUS
 62
    3
 10
1296.3322
 20
2284.7718
 11
1296.3501
 21
2284.3289
  0
LINE
  8
1-2
  6
CONTINUOUS
 62
    3
 10
1296.3501
 20
2284.3289
 11
1296.4064
 21
2283.8845
  0
LINE
  8
1-2
  6
CONTINUOUS
 62
    3
 10
1296.4064
 20
2283.8845
 11
1296.4999
 21
2283.4418
  0
LINE
  8
1-2
  6
CONTINUOUS
 62
    3
 10
1296.4999
 20
2283.4418
 11
1296.6295
 21
2283.0056
  0
LINE
  8
1-2
  6
CONTINUOUS
 62
    3
 10
1296.6295
 20
2283.0056
 11
1296.794
 21
2282.5792
  0
LINE
  8
1-2
  6
CONTINUOUS
 62
    3
 10
1296.794
 20
2282.5792
 11
1296.9923
 21
2282.1672
  0
LINE
  8
1-2
  6
CONTINUOUS
 62
    3
 10
1296.9923
 20
2282.1672
 11
1297.2233
 21
2281.7728
  0
LINE
  8
1-2
  6
CONTINUOUS
 62
    3
 10
1297.2233
 20
2281.7728
 11
1297.4856
 21
2281.4002
  0
LINE
  8
1-2
  6
CONTINUOUS
 62
    3
 10
1297.4856
 20
2281.4002
 11
1297.7785
 21
2281.0538
  0
LINE
  8
1-2
  6
CONTINUOUS
 62
    3
 10
1297.7785
 20
2281.0538
 11
1298.1005
 21
2280.7378
  0
LINE
  8
1-2
  6
CONTINUOUS
 62
    3
 10
1298.1005
 20
2280.7378
 11
1298.4504
 21
2280.455
  0
LINE
  8
1-2
  6
CONTINUOUS
 62
    3
 10
1298.4504
 20
2280.455
 11
1298.8274
 21
2280.2102
  0
LINE
  8
1-2
  6
CONTINUOUS
 62
    3
 10
1298.8274
 20
2280.2102
 11
1299.2301
 21
2280.0078
  0
LINE
  8
1-2
  6
CONTINUOUS
 62
    3
 10
1299.2301
 20
2280.0078
 11
1299.6571
 21
2279.8512
  0
LINE
  8
1-2
  6
CONTINUOUS
 62
    3
 10
1329.8102
 20
2284.7718
 11
1329.8223
 21
2284.2383
  0
LINE
  8
1-2
  6
CONTINUOUS
 62
    3
 10
1329.8223
 20
2284.2383
 11
1329.8782
 21
2283.7202
  0
LINE
  8
1-2
  6
CONTINUOUS
 62
    3
 10
1329.8782
 20
2283.7202
 11
1329.9736
 21
2283.2221
  0
LINE
  8
1-2
  6
CONTINUOUS
 62
    3
 10
1329.9736
 20
2283.2221
 11
1330.1047
 21
2282.7463
  0
LINE
  8
1-2
  6
CONTINUOUS
 62
    3
 10
1330.1047
 20
2282.7463
 11
1330.2677
 21
2282.2949
  0
LINE
  8
1-2
  6
CONTINUOUS
 62
    3
 10
1330.2677
 20
2282.2949
 11
1330.4591
 21
2281.8698
  0
LINE
  8
1-2
  6
CONTINUOUS
 62
    3
 10
1330.4591
 20
2281.8698
 11
1330.6751
 21
2281.4734
  0
LINE
  8
1-2
  6
CONTINUOUS
 62
    3
 10
1330.6751
 20
2281.4734
 11
1330.9139
 21
2281.1077
  0
LINE
  8
1-2
  6
CONTINUOUS
 62
    3
 10
1330.9139
 20
2281.1077
 11
1331.1723
 21
2280.7729
  0
LINE
  8
1-2
  6
CONTINUOUS
 62
    3
 10
1331.1723
 20
2280.7729
 11
1331.4483
 21
2280.4698
  0
LINE
  8
1-2
  6
CONTINUOUS
 62
    3
 10
1331.4483
 20
2280.4698
 11
1331.7403
 21
2280.2001
  0
LINE
  8
1-2
  6
CONTINUOUS
 62
    3
 10
1331.7403
 20
2280.2001
 11
1332.0465
 21
2279.9626
  0
LINE
  8
1-2
  6
CONTINUOUS
 62
    3
 10
1332.0465
 20
2279.9626
 11
1332.366
 21
2279.7579
  0
LINE
  8
1-2
  6
CONTINUOUS
 62
    3
 10
1332.366
 20
2279.7579
 11
1332.6975
 21
2279.5855
  0
LINE
  8
1-2
  6
CONTINUOUS
 62
    3
 10
1332.6975
 20
2279.5855
 11
1333.0409
 21
2279.4444
  0
LINE
  8
1-2
  6
CONTINUOUS
 62
    3
 10
1333.0409
 20
2279.4444
 11
1333.3953
 21
2279.3341
  0
LINE
  8
1-2
  6
CONTINUOUS
 62
    3
 10
1333.3953
 20
2279.3341
 11
1333.7619
 21
2279.2524
  0
LINE
  8
1-2
  6
CONTINUOUS
 62
    3
 10
1333.7619
 20
2279.2524
 11
1334.1401
 21
2279.198
  0
LINE
  8
1-2
  6
CONTINUOUS
 62
    3
 10
1334.1401
 20
2279.198
 11
1334.5308
 21
2279.1695
  0
LINE
  8
1-2
  6
CONTINUOUS
 62
    3
 10
1357.2314
 20
2284.7718
 11
1357.3044
 21
2284.1339
  0
LINE
  8
1-2
  6
CONTINUOUS
 62
    3
 10
1357.3044
 20
2284.1339
 11
1357.4174
 21
2283.5433
  0
LINE
  8
1-2
  6
CONTINUOUS
 62
    3
 10
1357.4174
 20
2283.5433
 11
1357.5656
 21
2282.9994
  0
LINE
  8
1-2
  6
CONTINUOUS
 62
    3
 10
1357.5656
 20
2282.9994
 11
1357.7443
 21
2282.5003
  0
LINE
  8
1-2
  6
CONTINUOUS
 62
    3
 10
1357.7443
 20
2282.5003
 11
1357.9491
 21
2282.045
  0
LINE
  8
1-2
  6
CONTINUOUS
 62
    3
 10
1357.9491
 20
2282.045
 11
1358.177
 21
2281.6318
  0
LINE
  8
1-2
  6
CONTINUOUS
 62
    3
 10
1358.177
 20
2281.6318
 11
1358.4241
 21
2281.2586
  0
LINE
  8
1-2
  6
CONTINUOUS
 62
    3
 10
1358.4241
 20
2281.2586
 11
1358.6871
 21
2280.9253
  0
LINE
  8
1-2
  6
CONTINUOUS
 62
    3
 10
1358.6871
 20
2280.9253
 11
1358.9637
 21
2280.6297
  0
LINE
  8
1-2
  6
CONTINUOUS
 62
    3
 10
1358.9637
 20
2280.6297
 11
1359.2515
 21
2280.3698
  0
LINE
  8
1-2
  6
CONTINUOUS
 62
    3
 10
1359.2515
 20
2280.3698
 11
1359.5482
 21
2280.1447
  0
LINE
  8
1-2
  6
CONTINUOUS
 62
    3
 10
1359.5482
 20
2280.1447
 11
1359.8526
 21
2279.9527
  0
LINE
  8
1-2
  6
CONTINUOUS
 62
    3
 10
1359.8526
 20
2279.9527
 11
1360.1631
 21
2279.7918
  0
LINE
  8
1-2
  6
CONTINUOUS
 62
    3
 10
1360.1631
 20
2279.7918
 11
1360.4791
 21
2279.6609
  0
LINE
  8
1-2
  6
CONTINUOUS
 62
    3
 10
1360.4791
 20
2279.6609
 11
1360.7999
 21
2279.5582
  0
LINE
  8
1-2
  6
CONTINUOUS
 62
    3
 10
1360.7999
 20
2279.5582
 11
1361.1255
 21
2279.4825
  0
LINE
  8
1-2
  6
CONTINUOUS
 62
    3
 10
1361.1255
 20
2279.4825
 11
1361.456
 21
2279.4313
  0
LINE
  8
1-2
  6
CONTINUOUS
 62
    3
 10
1361.456
 20
2279.4313
 11
1361.7919
 21
2279.4033
  0
LINE
  8
1-2
  6
CONTINUOUS
 62
    3
 10
1361.7919
 20
2279.4033
 11
1362.1345
 21
2279.3967
  0
LINE
  8
1-2
  6
CONTINUOUS
 62
    3
 10
1378.0019
 20
2284.7718
 11
1378.0863
 21
2284.2497
  0
LINE
  8
1-2
  6
CONTINUOUS
 62
    3
 10
1378.0863
 20
2284.2497
 11
1378.1873
 21
2283.7669
  0
LINE
  8
1-2
  6
CONTINUOUS
 62
    3
 10
1378.1873
 20
2283.7669
 11
1378.3031
 21
2283.3218
  0
LINE
  8
1-2
  6
CONTINUOUS
 62
    3
 10
1378.3031
 20
2283.3218
 11
1378.4327
 21
2282.9135
  0
LINE
  8
1-2
  6
CONTINUOUS
 62
    3
 10
1378.4327
 20
2282.9135
 11
1378.574
 21
2282.5399
  0
LINE
  8
1-2
  6
CONTINUOUS
 62
    3
 10
1378.574
 20
2282.5399
 11
1378.7262
 21
2282.1984
  0
LINE
  8
1-2
  6
CONTINUOUS
 62
    3
 10
1378.7262
 20
2282.1984
 11
1378.888
 21
2281.8896
  0
LINE
  8
1-2
  6
CONTINUOUS
 62
    3
 10
1378.888
 20
2281.8896
 11
1379.0587
 21
2281.6105
  0
LINE
  8
1-2
  6
CONTINUOUS
 62
    3
 10
1379.0587
 20
2281.6105
 11
1379.2371
 21
2281.3606
  0
LINE
  8
1-2
  6
CONTINUOUS
 62
    3
 10
1379.2371
 20
2281.3606
 11
1379.4237
 21
2281.1369
  0
LINE
  8
1-2
  6
CONTINUOUS
 62
    3
 10
1379.4237
 20
2281.1369
 11
1379.6165
 21
2280.9414
  0
LINE
  8
1-2
  6
CONTINUOUS
 62
    3
 10
1379.6165
 20
2280.9414
 11
1379.8154
 21
2280.77
  0
LINE
  8
1-2
  6
CONTINUOUS
 62
    3
 10
1379.8154
 20
2280.77
 11
1380.0195
 21
2280.6232
  0
LINE
  8
1-2
  6
CONTINUOUS
 62
    3
 10
1380.0195
 20
2280.6232
 11
1380.2281
 21
2280.4995
  0
LINE
  8
1-2
  6
CONTINUOUS
 62
    3
 10
1380.2281
 20
2280.4995
 11
1380.4407
 21
2280.3976
  0
LINE
  8
1-2
  6
CONTINUOUS
 62
    3
 10
1380.4407
 20
2280.3976
 11
1380.6555
 21
2280.3171
  0
LINE
  8
1-2
  6
CONTINUOUS
 62
    3
 10
1380.6555
 20
2280.3171
 11
1380.8715
 21
2280.257
  0
LINE
  8
1-2
  6
CONTINUOUS
 62
    3
 10
1380.8715
 20
2280.257
 11
1381.0877
 21
2280.2169
  0
LINE
  8
1-2
  6
CONTINUOUS
 62
    3
 10
1381.0877
 20
2280.2169
 11
1381.3018
 21
2280.1942
  0
LINE
  8
1-2
  6
CONTINUOUS
 62
    3
 10
1381.3018
 20
2280.1942
 11
1381.5119
 21
2280.1904
  0
LINE
  8
1-2
  6
CONTINUOUS
 62
    3
 10
1381.5119
 20
2280.1904
 11
1381.7152
 21
2280.2033
  0
LINE
  8
1-2
  6
CONTINUOUS
 62
    3
 10
1381.7152
 20
2280.2033
 11
1381.9105
 21
2280.2325
  0
LINE
  8
1-2
  6
CONTINUOUS
 62
    3
 10
1381.9105
 20
2280.2325
 11
1382.0931
 21
2280.2771
  0
LINE
  8
1-2
  6
CONTINUOUS
 62
    3
 10
1382.0931
 20
2280.2771
 11
1382.2604
 21
2280.3362
  0
LINE
  8
1-2
  6
CONTINUOUS
 62
    3
 10
1410.8449
 20
2201.439
 11
1475.0013
 21
2201.439
  0
LINE
  8
1-2
  6
CONTINUOUS
 62
    3
 10
1475.0001
 20
2201.439
 11
1391.667
 21
2284.7718
  0
LINE
  8
1-2
  6
CONTINUOUS
 62
    3
 10
1379.4423
 20
2281.0726
 11
1455.4041
 21
2201.439
  0
LINE
  8
1-2
  6
CONTINUOUS
 62
    3
 10
1358.8563
 20
2280.7509
 11
1429.7178
 21
2201.439
  0
LINE
  8
1-2
  6
CONTINUOUS
 62
    3
 10
624.99986
 20
2201.439
 11
708.33302
 21
2284.7718
  0
LINE
  8
1-2
  6
CONTINUOUS
 62
    3
 10
1050
 20
2409.7722
 11
833.49304
 21
2284.7718
  0
LINE
  8
1-2
  6
CONTINUOUS
 62
    3
 10
1266.507
 20
2284.7718
 11
1296.3322
 21
2284.7718
  0
LINE
  8
1-2
  6
CONTINUOUS
 62
    3
 10
1297.5596
 20
2281.2433
 11
1315.1837
 21
2256.6686
  0
LINE
  8
1-2
  6
CONTINUOUS
 62
    3
 10
1331.2348
 20
2280.6544
 11
1382.2225
 21
2217.964
  0
LINE
  8
1-2
  6
CONTINUOUS
 62
    3
 10
1383.3657
 20
1651.4391
 11
1383.2642
 21
1652.1971
  0
LINE
  8
1-2
  6
CONTINUOUS
 62
    3
 10
1383.2642
 20
1652.1971
 11
1383.1566
 21
1652.8899
  0
LINE
  8
1-2
  6
CONTINUOUS
 62
    3
 10
1383.1566
 20
1652.8899
 11
1383.0438
 21
1653.5169
  0
LINE
  8
1-2
  6
CONTINUOUS
 62
    3
 10
1383.0438
 20
1653.5169
 11
1382.9245
 21
1654.0786
  0
LINE
  8
1-2
  6
CONTINUOUS
 62
    3
 10
1382.9245
 20
1654.0786
 11
1382.7995
 21
1654.5749
  0
LINE
  8
1-2
  6
CONTINUOUS
 62
    3
 10
1382.7995
 20
1654.5749
 11
1382.6686
 21
1655.0055
  0
LINE
  8
1-2
  6
CONTINUOUS
 62
    3
 10
1382.6686
 20
1655.0055
 11
1382.5318
 21
1655.3715
  0
LINE
  8
1-2
  6
CONTINUOUS
 62
    3
 10
1382.5318
 20
1655.3715
 11
1382.3893
 21
1655.6711
  0
LINE
  8
1-2
  6
CONTINUOUS
 62
    3
 10
1382.3893
 20
1655.6711
 11
1382.2408
 21
1655.9062
  0
LINE
  8
1-2
  6
CONTINUOUS
 62
    3
 10
1364.9192
 20
1651.4391
 11
1364.8631
 21
1652.0397
  0
LINE
  8
1-2
  6
CONTINUOUS
 62
    3
 10
1364.8631
 20
1652.0397
 11
1364.7703
 21
1652.6071
  0
LINE
  8
1-2
  6
CONTINUOUS
 62
    3
 10
1364.7703
 20
1652.6071
 11
1364.6449
 21
1653.1415
  0
LINE
  8
1-2
  6
CONTINUOUS
 62
    3
 10
1364.6449
 20
1653.1415
 11
1364.4907
 21
1653.6438
  0
LINE
  8
1-2
  6
CONTINUOUS
 62
    3
 10
1364.4907
 20
1653.6438
 11
1364.3105
 21
1654.1122
  0
LINE
  8
1-2
  6
CONTINUOUS
 62
    3
 10
1364.3105
 20
1654.1122
 11
1364.1085
 21
1654.5477
  0
LINE
  8
1-2
  6
CONTINUOUS
 62
    3
 10
1364.1085
 20
1654.5477
 11
1363.8882
 21
1654.9498
  0
LINE
  8
1-2
  6
CONTINUOUS
 62
    3
 10
1363.8882
 20
1654.9498
 11
1363.6531
 21
1655.3183
  0
LINE
  8
1-2
  6
CONTINUOUS
 62
    3
 10
1363.6531
 20
1655.3183
 11
1363.4069
 21
1655.6535
  0
LINE
  8
1-2
  6
CONTINUOUS
 62
    3
 10
1363.4069
 20
1655.6535
 11
1363.1533
 21
1655.9542
  0
LINE
  8
1-2
  6
CONTINUOUS
 62
    3
 10
1363.1533
 20
1655.9542
 11
1362.8953
 21
1656.2204
  0
LINE
  8
1-2
  6
CONTINUOUS
 62
    3
 10
1362.8953
 20
1656.2204
 11
1362.6374
 21
1656.453
  0
LINE
  8
1-2
  6
CONTINUOUS
 62
    3
 10
1362.6374
 20
1656.453
 11
1362.3825
 21
1656.651
  0
LINE
  8
1-2
  6
CONTINUOUS
 62
    3
 10
1362.3825
 20
1656.651
 11
1362.1345
 21
1656.8143
  0
LINE
  8
1-2
  6
CONTINUOUS
 62
    3
 10
1339.6558
 20
1651.4391
 11
1339.4883
 21
1652.1072
  0
LINE
  8
1-2
  6
CONTINUOUS
 62
    3
 10
1339.4883
 20
1652.1072
 11
1339.2844
 21
1652.7325
  0
LINE
  8
1-2
  6
CONTINUOUS
 62
    3
 10
1339.2844
 20
1652.7325
 11
1339.0454
 21
1653.316
  0
LINE
  8
1-2
  6
CONTINUOUS
 62
    3
 10
1339.0454
 20
1653.316
 11
1338.7731
 21
1653.8574
  0
LINE
  8
1-2
  6
CONTINUOUS
 62
    3
 10
1338.7731
 20
1653.8574
 11
1338.4687
 21
1654.3572
  0
LINE
  8
1-2
  6
CONTINUOUS
 62
    3
 10
1338.4687
 20
1654.3572
 11
1338.1338
 21
1654.8162
  0
LINE
  8
1-2
  6
CONTINUOUS
 62
    3
 10
1338.1338
 20
1654.8162
 11
1337.7701
 21
1655.2341
  0
LINE
  8
1-2
  6
CONTINUOUS
 62
    3
 10
1337.7701
 20
1655.2341
 11
1337.3782
 21
1655.6115
  0
LINE
  8
1-2
  6
CONTINUOUS
 62
    3
 10
1337.3782
 20
1655.6115
 11
1336.9607
 21
1655.9482
  0
LINE
  8
1-2
  6
CONTINUOUS
 62
    3
 10
1336.9607
 20
1655.9482
 11
1336.5183
 21
1656.2457
  0
LINE
  8
1-2
  6
CONTINUOUS
 62
    3
 10
1336.5183
 20
1656.2457
 11
1336.0526
 21
1656.503
  0
LINE
  8
1-2
  6
CONTINUOUS
 62
    3
 10
1336.0526
 20
1656.503
 11
1335.5651
 21
1656.7215
  0
LINE
  8
1-2
  6
CONTINUOUS
 62
    3
 10
1335.5651
 20
1656.7215
 11
1335.0573
 21
1656.9009
  0
LINE
  8
1-2
  6
CONTINUOUS
 62
    3
 10
1335.0573
 20
1656.9009
 11
1334.5308
 21
1657.0419
  0
LINE
  8
1-2
  6
CONTINUOUS
 62
    3
 10
1383.3657
 20
1651.4391
 11
1391.667
 21
1651.4391
  0
LINE
  8
1-2
  6
CONTINUOUS
 62
    3
 10
1464.6744
 20
1734.7727
 11
1383.3657
 21
1651.4391
  0
LINE
  8
1-2
  6
CONTINUOUS
 62
    3
 10
1441.7288
 20
1734.7727
 11
1364.9192
 21
1651.4391
  0
LINE
  8
1-2
  6
CONTINUOUS
 62
    3
 10
1364.9192
 20
1651.4391
 11
1378.0019
 21
1651.4391
  0
LINE
  8
1-2
  6
CONTINUOUS
 62
    3
 10
1339.6558
 20
1651.4391
 11
1357.2314
 21
1651.4391
  0
LINE
  8
1-2
  6
CONTINUOUS
 62
    3
 10
1410.3035
 20
1734.7727
 11
1339.6558
 21
1651.4391
  0
LINE
  8
1-2
  6
CONTINUOUS
 62
    3
 10
1329.8102
 20
1651.4391
 11
1329.8223
 21
1651.9731
  0
LINE
  8
1-2
  6
CONTINUOUS
 62
    3
 10
1329.8223
 20
1651.9731
 11
1329.8782
 21
1652.4908
  0
LINE
  8
1-2
  6
CONTINUOUS
 62
    3
 10
1329.8782
 20
1652.4908
 11
1329.9736
 21
1652.9889
  0
LINE
  8
1-2
  6
CONTINUOUS
 62
    3
 10
1329.9736
 20
1652.9889
 11
1330.1047
 21
1653.4652
  0
LINE
  8
1-2
  6
CONTINUOUS
 62
    3
 10
1330.1047
 20
1653.4652
 11
1330.2677
 21
1653.9168
  0
LINE
  8
1-2
  6
CONTINUOUS
 62
    3
 10
1330.2677
 20
1653.9168
 11
1330.4591
 21
1654.3416
  0
LINE
  8
1-2
  6
CONTINUOUS
 62
    3
 10
1330.4591
 20
1654.3416
 11
1330.6751
 21
1654.7375
  0
LINE
  8
1-2
  6
CONTINUOUS
 62
    3
 10
1330.6751
 20
1654.7375
 11
1330.9139
 21
1655.1037
  0
LINE
  8
1-2
  6
CONTINUOUS
 62
    3
 10
1330.9139
 20
1655.1037
 11
1331.1723
 21
1655.4385
  0
LINE
  8
1-2
  6
CONTINUOUS
 62
    3
 10
1331.1723
 20
1655.4385
 11
1331.4483
 21
1655.7414
  0
LINE
  8
1-2
  6
CONTINUOUS
 62
    3
 10
1331.4483
 20
1655.7414
 11
1331.7403
 21
1656.0113
  0
LINE
  8
1-2
  6
CONTINUOUS
 62
    3
 10
1331.7403
 20
1656.0113
 11
1332.0465
 21
1656.2486
  0
LINE
  8
1-2
  6
CONTINUOUS
 62
    3
 10
1332.0465
 20
1656.2486
 11
1332.366
 21
1656.4535
  0
LINE
  8
1-2
  6
CONTINUOUS
 62
    3
 10
1332.366
 20
1656.4535
 11
1332.6975
 21
1656.6262
  0
LINE
  8
1-2
  6
CONTINUOUS
 62
    3
 10
1332.6975
 20
1656.6262
 11
1333.0409
 21
1656.767
  0
LINE
  8
1-2
  6
CONTINUOUS
 62
    3
 10
1333.0409
 20
1656.767
 11
1333.3953
 21
1656.8774
  0
LINE
  8
1-2
  6
CONTINUOUS
 62
    3
 10
1333.3953
 20
1656.8774
 11
1333.7619
 21
1656.9588
  0
LINE
  8
1-2
  6
CONTINUOUS
 62
    3
 10
1333.7619
 20
1656.9588
 11
1334.1401
 21
1657.0132
  0
LINE
  8
1-2
  6
CONTINUOUS
 62
    3
 10
1334.1401
 20
1657.0132
 11
1334.5308
 21
1657.0419
  0
LINE
  8
1-2
  6
CONTINUOUS
 62
    3
 10
1357.2314
 20
1651.4391
 11
1357.3044
 21
1652.0775
  0
LINE
  8
1-2
  6
CONTINUOUS
 62
    3
 10
1357.3044
 20
1652.0775
 11
1357.4174
 21
1652.6682
  0
LINE
  8
1-2
  6
CONTINUOUS
 62
    3
 10
1357.4174
 20
1652.6682
 11
1357.5656
 21
1653.2116
  0
LINE
  8
1-2
  6
CONTINUOUS
 62
    3
 10
1357.5656
 20
1653.2116
 11
1357.7443
 21
1653.7111
  0
LINE
  8
1-2
  6
CONTINUOUS
 62
    3
 10
1357.7443
 20
1653.7111
 11
1357.9491
 21
1654.1664
  0
LINE
  8
1-2
  6
CONTINUOUS
 62
    3
 10
1357.9491
 20
1654.1664
 11
1358.177
 21
1654.5799
  0
LINE
  8
1-2
  6
CONTINUOUS
 62
    3
 10
1358.177
 20
1654.5799
 11
1358.4241
 21
1654.9528
  0
LINE
  8
1-2
  6
CONTINUOUS
 62
    3
 10
1358.4241
 20
1654.9528
 11
1358.6871
 21
1655.2861
  0
LINE
  8
1-2
  6
CONTINUOUS
 62
    3
 10
1358.6871
 20
1655.2861
 11
1358.9637
 21
1655.5818
  0
LINE
  8
1-2
  6
CONTINUOUS
 62
    3
 10
1358.9637
 20
1655.5818
 11
1359.2515
 21
1655.8411
  0
LINE
  8
1-2
  6
CONTINUOUS
 62
    3
 10
1359.2515
 20
1655.8411
 11
1359.5482
 21
1656.0668
  0
LINE
  8
1-2
  6
CONTINUOUS
 62
    3
 10
1359.5482
 20
1656.0668
 11
1359.8526
 21
1656.2588
  0
LINE
  8
1-2
  6
CONTINUOUS
 62
    3
 10
1359.8526
 20
1656.2588
 11
1360.1631
 21
1656.4194
  0
LINE
  8
1-2
  6
CONTINUOUS
 62
    3
 10
1360.1631
 20
1656.4194
 11
1360.4791
 21
1656.5505
  0
LINE
  8
1-2
  6
CONTINUOUS
 62
    3
 10
1360.4791
 20
1656.5505
 11
1360.7999
 21
1656.6532
  0
LINE
  8
1-2
  6
CONTINUOUS
 62
    3
 10
1360.7999
 20
1656.6532
 11
1361.1255
 21
1656.7289
  0
LINE
  8
1-2
  6
CONTINUOUS
 62
    3
 10
1361.1255
 20
1656.7289
 11
1361.456
 21
1656.7801
  0
LINE
  8
1-2
  6
CONTINUOUS
 62
    3
 10
1361.456
 20
1656.7801
 11
1361.7919
 21
1656.8081
  0
LINE
  8
1-2
  6
CONTINUOUS
 62
    3
 10
1361.7919
 20
1656.8081
 11
1362.1345
 21
1656.8143
  0
LINE
  8
1-2
  6
CONTINUOUS
 62
    3
 10
1378.0019
 20
1651.4391
 11
1378.0863
 21
1651.962
  0
LINE
  8
1-2
  6
CONTINUOUS
 62
    3
 10
1378.0863
 20
1651.962
 11
1378.1873
 21
1652.4445
  0
LINE
  8
1-2
  6
CONTINUOUS
 62
    3
 10
1378.1873
 20
1652.4445
 11
1378.3031
 21
1652.8891
  0
LINE
  8
1-2
  6
CONTINUOUS
 62
    3
 10
1378.3031
 20
1652.8891
 11
1378.4327
 21
1653.2979
  0
LINE
  8
1-2
  6
CONTINUOUS
 62
    3
 10
1378.4327
 20
1653.2979
 11
1378.574
 21
1653.6718
  0
LINE
  8
1-2
  6
CONTINUOUS
 62
    3
 10
1378.574
 20
1653.6718
 11
1378.7262
 21
1654.0125
  0
LINE
  8
1-2
  6
CONTINUOUS
 62
    3
 10
1378.7262
 20
1654.0125
 11
1378.888
 21
1654.3218
  0
LINE
  8
1-2
  6
CONTINUOUS
 62
    3
 10
1378.888
 20
1654.3218
 11
1379.0587
 21
1654.6007
  0
LINE
  8
1-2
  6
CONTINUOUS
 62
    3
 10
1379.0587
 20
1654.6007
 11
1379.2371
 21
1654.8508
  0
LINE
  8
1-2
  6
CONTINUOUS
 62
    3
 10
1379.2371
 20
1654.8508
 11
1379.4237
 21
1655.074
  0
LINE
  8
1-2
  6
CONTINUOUS
 62
    3
 10
1379.4237
 20
1655.074
 11
1379.6165
 21
1655.2703
  0
LINE
  8
1-2
  6
CONTINUOUS
 62
    3
 10
1379.6165
 20
1655.2703
 11
1379.8154
 21
1655.441
  0
LINE
  8
1-2
  6
CONTINUOUS
 62
    3
 10
1379.8154
 20
1655.441
 11
1380.0195
 21
1655.5882
  0
LINE
  8
1-2
  6
CONTINUOUS
 62
    3
 10
1380.0195
 20
1655.5882
 11
1380.2281
 21
1655.7119
  0
LINE
  8
1-2
  6
CONTINUOUS
 62
    3
 10
1380.2281
 20
1655.7119
 11
1380.4407
 21
1655.8139
  0
LINE
  8
1-2
  6
CONTINUOUS
 62
    3
 10
1380.4407
 20
1655.8139
 11
1380.6555
 21
1655.8938
  0
LINE
  8
1-2
  6
CONTINUOUS
 62
    3
 10
1380.6555
 20
1655.8938
 11
1380.8715
 21
1655.9542
  0
LINE
  8
1-2
  6
CONTINUOUS
 62
    3
 10
1380.8715
 20
1655.9542
 11
1381.0877
 21
1655.9945
  0
LINE
  8
1-2
  6
CONTINUOUS
 62
    3
 10
1381.0877
 20
1655.9945
 11
1381.3018
 21
1656.0168
  0
LINE
  8
1-2
  6
CONTINUOUS
 62
    3
 10
1381.3018
 20
1656.0168
 11
1381.5119
 21
1656.021
  0
LINE
  8
1-2
  6
CONTINUOUS
 62
    3
 10
1381.5119
 20
1656.021
 11
1381.7152
 21
1656.0076
  0
LINE
  8
1-2
  6
CONTINUOUS
 62
    3
 10
1381.7152
 20
1656.0076
 11
1381.9105
 21
1655.9789
  0
LINE
  8
1-2
  6
CONTINUOUS
 62
    3
 10
1381.9105
 20
1655.9789
 11
1382.0931
 21
1655.9344
  0
LINE
  8
1-2
  6
CONTINUOUS
 62
    3
 10
1382.0931
 20
1655.9344
 11
1382.2604
 21
1655.875
  0
LINE
  8
1-2
  6
CONTINUOUS
 62
    3
 10
1475.0001
 20
1734.7724
 11
1391.667
 21
1651.4391
  0
LINE
  8
1-2
  6
CONTINUOUS
 62
    3
 10
1379.4423
 20
1655.1391
 11
1455.4041
 21
1734.7727
  0
LINE
  8
1-2
  6
CONTINUOUS
 62
    3
 10
1358.8563
 20
1655.4608
 11
1429.7178
 21
1734.7727
  0
LINE
  8
1-2
  6
CONTINUOUS
 62
    3
 10
1312.5006
 20
1734.7727
 11
1475.0013
 21
1734.7727
  0
LINE
  8
1-2
  6
CONTINUOUS
 62
    3
 10
1331.5098
 20
1655.8955
 11
1395.6624
 21
1734.7727
  0
LINE
  8
1-2
  6
CONTINUOUS
 62
    3
 10
1312.5003
 20
1675.8008
 11
1354.7923
 21
1734.7727
  0
LINE
  8
1-2
  6
CONTINUOUS
 62
    3
 10
1371.0792
 20
1734.7727
 11
1312.5
 21
1657.2342
  0
LINE
  8
1-2
  6
CONTINUOUS
 62
    3
 10
1312.5
 20
1651.4391
 11
1329.8102
 21
1651.4391
  0
LINE
  8
1-2
  6
CONTINUOUS
 62
    3
 10
1339.6558
 20
1651.4391
 11
1339.4883
 21
1652.1072
  0
LINE
  8
1-2
  6
CONTINUOUS
 62
    3
 10
1339.4883
 20
1652.1072
 11
1339.2844
 21
1652.7325
  0
LINE
  8
1-2
  6
CONTINUOUS
 62
    3
 10
1339.2844
 20
1652.7325
 11
1339.0454
 21
1653.316
  0
LINE
  8
1-2
  6
CONTINUOUS
 62
    3
 10
1339.0454
 20
1653.316
 11
1338.7731
 21
1653.8574
  0
LINE
  8
1-2
  6
CONTINUOUS
 62
    3
 10
1338.7731
 20
1653.8574
 11
1338.4687
 21
1654.3572
  0
LINE
  8
1-2
  6
CONTINUOUS
 62
    3
 10
1338.4687
 20
1654.3572
 11
1338.1338
 21
1654.816
  0
LINE
  8
1-2
  6
CONTINUOUS
 62
    3
 10
1338.1338
 20
1654.816
 11
1337.7701
 21
1655.2341
  0
LINE
  8
1-2
  6
CONTINUOUS
 62
    3
 10
1337.7701
 20
1655.2341
 11
1337.3782
 21
1655.611
  0
LINE
  8
1-2
  6
CONTINUOUS
 62
    3
 10
1337.3782
 20
1655.611
 11
1336.9607
 21
1655.9482
  0
LINE
  8
1-2
  6
CONTINUOUS
 62
    3
 10
1336.9607
 20
1655.9482
 11
1336.5183
 21
1656.2457
  0
LINE
  8
1-2
  6
CONTINUOUS
 62
    3
 10
1336.5183
 20
1656.2457
 11
1336.0526
 21
1656.503
  0
LINE
  8
1-2
  6
CONTINUOUS
 62
    3
 10
1336.0526
 20
1656.503
 11
1335.5651
 21
1656.7212
  0
LINE
  8
1-2
  6
CONTINUOUS
 62
    3
 10
1335.5651
 20
1656.7212
 11
1335.0573
 21
1656.9009
  0
LINE
  8
1-2
  6
CONTINUOUS
 62
    3
 10
1335.0573
 20
1656.9009
 11
1334.5308
 21
1657.0419
  0
LINE
  8
1-2
  6
CONTINUOUS
 62
    3
 10
1339.6558
 20
1651.4391
 11
1357.2314
 21
1651.4391
  0
LINE
  8
1-2
  6
CONTINUOUS
 62
    3
 10
1324.9036
 20
1734.7724
 11
1312.5006
 21
1715.5971
  0
LINE
  8
1-2
  6
CONTINUOUS
 62
    3
 10
1312.5013
 20
1778.7197
 11
1312.4999
 21
1640.6822
  0
LINE
  8
1-2
  6
CONTINUOUS
 62
    3
 10
1312.4999
 20
1640.6822
 11
1312.4988
 21
1526.4391
  0
LINE
  8
1-2
  6
CONTINUOUS
 62
    3
 10
1312.5
 20
1651.4391
 11
1329.8102
 21
1651.4391
  0
LINE
  8
1-2
  6
CONTINUOUS
 62
    3
 10
1050
 20
1651.4391
 11
1032.9065
 21
1651.4391
  0
LINE
  8
1-2
  6
CONTINUOUS
 62
    3
 10
624.99986
 20
2201.439
 11
1050
 21
2201.439
  0
LINE
  8
1-2
  6
CONTINUOUS
 62
    3
 10
624.99986
 20
2184.7732
 11
1050
 21
2184.7732
  0
LINE
  8
1-2
  6
CONTINUOUS
 62
    3
 10
972.19321
 20
1658.3642
 11
972.59938
 21
1658.3811
  0
LINE
  8
1-2
  6
CONTINUOUS
 62
    3
 10
972.59938
 20
1658.3811
 11
973.00877
 21
1658.3929
  0
LINE
  8
1-2
  6
CONTINUOUS
 62
    3
 10
973.00877
 20
1658.3929
 11
973.42125
 21
1658.3991
  0
LINE
  8
1-2
  6
CONTINUOUS
 62
    3
 10
973.42125
 20
1658.3991
 11
973.83671
 21
1658.4004
  0
LINE
  8
1-2
  6
CONTINUOUS
 62
    3
 10
973.83671
 20
1658.4004
 11
974.25537
 21
1658.3964
  0
LINE
  8
1-2
  6
CONTINUOUS
 62
    3
 10
974.25537
 20
1658.3964
 11
974.67701
 21
1658.3873
  0
LINE
  8
1-2
  6
CONTINUOUS
 62
    3
 10
974.67701
 20
1658.3873
 11
975.10174
 21
1658.3724
  0
LINE
  8
1-2
  6
CONTINUOUS
 62
    3
 10
975.10174
 20
1658.3724
 11
975.52969
 21
1658.3526
  0
LINE
  8
1-2
  6
CONTINUOUS
 62
    3
 10
975.52969
 20
1658.3526
 11
975.96061
 21
1658.3271
  0
LINE
  8
1-2
  6
CONTINUOUS
 62
    3
 10
877.72204
 20
1658.2158
 11
877.85356
 21
1658.2296
  0
LINE
  8
1-2
  6
CONTINUOUS
 62
    3
 10
877.85356
 20
1658.2296
 11
877.98705
 21
1658.2395
  0
LINE
  8
1-2
  6
CONTINUOUS
 62
    3
 10
877.98705
 20
1658.2395
 11
878.12265
 21
1658.2467
  0
LINE
  8
1-2
  6
CONTINUOUS
 62
    3
 10
878.12265
 20
1658.2467
 11
878.26035
 21
1658.2499
  0
LINE
  8
1-2
  6
CONTINUOUS
 62
    3
 10
878.26035
 20
1658.2499
 11
878.3999
 21
1658.2499
  0
LINE
  8
1-2
  6
CONTINUOUS
 62
    3
 10
878.3999
 20
1658.2499
 11
878.54169
 21
1658.2467
  0
LINE
  8
1-2
  6
CONTINUOUS
 62
    3
 10
878.54169
 20
1658.2467
 11
878.68545
 21
1658.2395
  0
LINE
  8
1-2
  6
CONTINUOUS
 62
    3
 10
878.68545
 20
1658.2395
 11
878.83119
 21
1658.2296
  0
LINE
  8
1-2
  6
CONTINUOUS
 62
    3
 10
878.83119
 20
1658.2296
 11
878.97904
 21
1658.2158
  0
LINE
  8
1-2
  6
CONTINUOUS
 62
    3
 10
877.72204
 20
2277.9954
 11
877.87447
 21
2277.9845
  0
LINE
  8
1-2
  6
CONTINUOUS
 62
    3
 10
877.87447
 20
2277.9845
 11
878.02367
 21
2277.9764
  0
LINE
  8
1-2
  6
CONTINUOUS
 62
    3
 10
878.02367
 20
2277.9764
 11
878.16966
 21
2277.9709
  0
LINE
  8
1-2
  6
CONTINUOUS
 62
    3
 10
878.16966
 20
2277.9709
 11
878.31243
 21
2277.9682
  0
LINE
  8
1-2
  6
CONTINUOUS
 62
    3
 10
878.31243
 20
2277.9682
 11
878.45224
 21
2277.9682
  0
LINE
  8
1-2
  6
CONTINUOUS
 62
    3
 10
878.45224
 20
2277.9682
 11
878.58858
 21
2277.9709
  0
LINE
  8
1-2
  6
CONTINUOUS
 62
    3
 10
878.58858
 20
2277.9709
 11
878.72195
 21
2277.9764
  0
LINE
  8
1-2
  6
CONTINUOUS
 62
    3
 10
878.72195
 20
2277.9764
 11
878.8521
 21
2277.9845
  0
LINE
  8
1-2
  6
CONTINUOUS
 62
    3
 10
878.8521
 20
2277.9845
 11
878.97904
 21
2277.9954
  0
LINE
  8
1-2
  6
CONTINUOUS
 62
    3
 10
972.19321
 20
2277.8472
 11
972.60136
 21
2277.8222
  0
LINE
  8
1-2
  6
CONTINUOUS
 62
    3
 10
972.60136
 20
2277.8222
 11
973.01211
 21
2277.8049
  0
LINE
  8
1-2
  6
CONTINUOUS
 62
    3
 10
973.01211
 20
2277.8049
 11
973.42546
 21
2277.794
  0
LINE
  8
1-2
  6
CONTINUOUS
 62
    3
 10
973.42546
 20
2277.794
 11
973.84153
 21
2277.7913
  0
LINE
  8
1-2
  6
CONTINUOUS
 62
    3
 10
973.84153
 20
2277.7913
 11
974.2602
 21
2277.7952
  0
LINE
  8
1-2
  6
CONTINUOUS
 62
    3
 10
974.2602
 20
2277.7952
 11
974.68134
 21
2277.8064
  0
LINE
  8
1-2
  6
CONTINUOUS
 62
    3
 10
974.68134
 20
2277.8064
 11
975.10508
 21
2277.8254
  0
LINE
  8
1-2
  6
CONTINUOUS
 62
    3
 10
975.10508
 20
2277.8254
 11
975.53155
 21
2277.8509
  0
LINE
  8
1-2
  6
CONTINUOUS
 62
    3
 10
975.53155
 20
2277.8509
 11
975.96061
 21
2277.8841
  0
LINE
  8
1-2
  6
CONTINUOUS
 62
    3
 10
1374.251
 20
1851.4391
 11
1336.3543
 21
1851.4391
  0
LINE
  8
1-2
  6
CONTINUOUS
 62
    3
 10
1374.251
 20
2084.7724
 11
1374.251
 21
1851.4391
  0
LINE
  8
1-2
  6
CONTINUOUS
 62
    3
 10
1374.251
 20
2084.7724
 11
1336.3543
 21
2084.7724
  0
LINE
  8
1-2
  6
CONTINUOUS
 62
    3
 10
1285.3268
 20
1851.4391
 11
1247.4301
 21
1851.4391
  0
LINE
  8
1-2
  6
CONTINUOUS
 62
    3
 10
1285.3268
 20
2084.7724
 11
1285.3268
 21
1851.4391
  0
LINE
  8
1-2
  6
CONTINUOUS
 62
    3
 10
1285.3268
 20
2084.7724
 11
1247.4301
 21
2084.7724
  0
LINE
  8
1-2
  6
CONTINUOUS
 62
    3
 10
1196.4027
 20
1851.4391
 11
1158.5061
 21
1851.4391
  0
LINE
  8
1-2
  6
CONTINUOUS
 62
    3
 10
1196.4027
 20
2084.7724
 11
1196.4027
 21
1851.4391
  0
LINE
  8
1-2
  6
CONTINUOUS
 62
    3
 10
1196.4027
 20
2084.7724
 11
1158.5061
 21
2084.7724
  0
LINE
  8
1-d
  6
CONTINUOUS
 62
    7
 10
249.99984
 20
129.99994
 11
1850.0005
 21
129.99994
  0
LINE
  8
1-d
  6
CONTINUOUS
 62
    7
 10
249.99984
 20
29.999945
 11
249.99984
 21
209.99993
  0
LINE
  8
1-d
  6
CONTINUOUS
 62
    7
 10
249.99984
 20
29.999945
 11
1850.0005
 21
29.999945
  0
LINE
  8
1-d
  6
CONTINUOUS
 62
    7
 10
1850.0005
 20
209.99993
 11
1850.0005
 21
29.999945
  0
LINE
  8
1-d
  6
CONTINUOUS
 62
    7
 10
249.99984
 20
209.99993
 11
1850.0005
 21
209.99993
  0
LINE
  8
1-d
  6
CONTINUOUS
 62
    7
 10
1050
 20
209.99993
 11
1050
 21
29.999945
  0
LINE
  8
1-d
  6
CONTINUOUS
 62
    7
 10
650.00019
 20
29.999945
 11
650.00019
 21
129.99994
  0
LINE
  8
1-d
  6
CONTINUOUS
 62
    7
 10
1050
 20
129.99994
 11
1050
 21
209.99996
  0
LINE
  8
1-d
  6
CONTINUOUS
 62
    7
 10
849.99987
 20
29.999945
 11
849.99987
 21
129.99994
  0
LINE
  8
1-d
  6
CONTINUOUS
 62
    7
 10
285.00021
 20
29.999945
 11
285.00021
 21
129.99994
  0
LINE
  8
1-d
  6
CONTINUOUS
 62
    7
 10
685.00006
 20
29.999945
 11
685.00006
 21
129.99994
  0
LINE
  8
1-d
  6
CONTINUOUS
 62
    7
 10
884.99999
 20
29.999945
 11
884.99999
 21
129.99994
  0
LINE
  8
1-d
  6
CONTINUOUS
 62
    7
 10
1015.0001
 20
129.99994
 11
1015.0001
 21
209.99996
  0
LINE
  8
1-d
  6
CONTINUOUS
 62
    7
 10
1550.0004
 20
129.99994
 11
1550.0004
 21
209.99996
  0
LINE
  8
1-d
  6
CONTINUOUS
 62
    7
 10
1585.0003
 20
129.99994
 11
1585.0003
 21
209.99996
  0
LINE
  8
1-1
  6
CENTER2
 62
    7
 10
1050
 20
2409.7722
 11
1050
 21
1210
  0
LINE
  8
1-5
  6
DASHED1
 62
    3
 10
1050
 20
1643.1059
 11
1312.4999
 21
1643.1059
  0
LINE
  8
1-d
  6
CONTINUOUS
 62
    4
 10
1206.6055
 20
1645.1458
 11
1206.6055
 21
1590.5959
  0
LINE
  8
1-d
  6
CONTINUOUS
 62
    4
 10
1206.6055
 20
1590.5959
 11
1418.3868
 21
1590.5959
  0
ARC
  8
1-2
  6
CONTINUOUS
 62
    3
 10
787.50004
 20
1468.1055
 40
8.3329482
 50
90
 51
270
  0
ARC
  8
1-2
  6
CONTINUOUS
 62
    3
 10
787.4988
 20
1518.1062
 40
8.3329482
 50
90
 51
270
  0
ARC
  8
1-2
  6
CONTINUOUS
 62
    3
 10
1312.5
 20
1468.1053
 40
8.3329482
 50
270
 51
90
  0
ARC
  8
1-2
  6
CONTINUOUS
 62
    3
 10
1312.4988
 20
1518.1057
 40
8.3329482
 50
270
 51
90
  0
ARC
  8
1-2
  6
CONTINUOUS
 62
    3
 10
625.0011
 20
1843.106
 40
8.3329482
 50
90
 51
270
  0
ARC
  8
1-2
  6
CONTINUOUS
 62
    3
 10
624.99999
 20
1743.105
 40
8.3329482
 50
90
 51
270
  0
ARC
  8
1-2
  6
CONTINUOUS
 62
    3
 10
1475.0013
 20
1843.106
 40
8.3329482
 50
270
 51
90
  0
ARC
  8
1-2
  6
CONTINUOUS
 62
    3
 10
1475.0001
 20
1743.105
 40
8.3329482
 50
270
 51
90
  0
ARC
  8
1-2
  6
CONTINUOUS
 62
    3
 10
624.99986
 20
2193.1062
 40
8.3329482
 50
90
 51
270
  0
ARC
  8
1-2
  6
CONTINUOUS
 62
    3
 10
624.99986
 20
2093.1049
 40
8.3329482
 50
90
 51
270
  0
ARC
  8
1-2
  6
CONTINUOUS
 62
    3
 10
1475.0001
 20
2193.1062
 40
8.3329482
 50
270
 51
90
  0
ARC
  8
1-2
  6
CONTINUOUS
 62
    3
 10
1475.0001
 20
2093.1049
 40
8.3329482
 50
270
 51
90
  0
ARC
  8
1-2
  6
CONTINUOUS
 62
    3
 10
1024.3805
 20
2286.5402
 40
8.7075721
 50
191.71624
 51
348.28375
  0
CIRCLE
  8
1-2
  6
CONTINUOUS
 62
    3
 10
797.68775
 20
2109.1056
 40
5.0000003
  0
CIRCLE
  8
1-2
  6
CONTINUOUS
 62
    3
 10
797.68775
 20
2168.8363
 40
5.0000003
  0
CIRCLE
  8
1-2
  6
CONTINUOUS
 62
    3
 10
797.68775
 20
1827.1058
 40
5.0000003
  0
CIRCLE
  8
1-2
  6
CONTINUOUS
 62
    3
 10
797.68775
 20
1767.3746
 40
5.0000003
  0
ARC
  8
1-2
  6
CONTINUOUS
 62
    3
 10
1024.3805
 20
1649.6707
 40
8.7075721
 50
11.716247
 51
168.28375
  0
CIRCLE
  8
1-2
  6
CONTINUOUS
 62
    3
 10
861.61247
 20
1636.7647
 40
5.0000003
  0
CIRCLE
  8
1-2
  6
CONTINUOUS
 62
    3
 10
861.61247
 20
1540.5267
 40
5.0000003
  0
ARC
  8
1-2
  6
CONTINUOUS
 62
    3
 10
1425.2783
 20
2184.7724
 40
8.3329482
 50
270
 51
90
  0
ARC
  8
1-2
  6
CONTINUOUS
 62
    3
 10
1425.2783
 20
1751.4387
 40
8.3329482
 50
359.99745
 51
90
  0
TEXT
  8
1-8
 10
1008.3653
 20
1345.1952
 40
30
 41
1
 50
0
  1
315φ
  0
TEXT
  8
1-8
 10
256.66705
 20
1913.522
 40
30
 41
1
 50
90
  1
570
  0
TEXT
  8
1-8
 10
1006.4597
 20
2568.4504
 40
30
 41
1
 50
0
  1
510φ
  0
TEXT
  8
1-d
 10
254.99986
 20
37.49994
 40
25
 41
1
 50
0
  1
番
  0
TEXT
  8
1-d
 10
655.00021
 20
97.499924
 40
25
 41
1
 50
0
  1
承
  0
TEXT
  8
1-d
 10
655.00021
 20
37.49994
 40
25
 41
1
 50
0
  1
認
  0
TEXT
  8
1-d
 10
1020.0002
 20
177.49997
 40
25
 41
1
 50
0
  1
尺
  0
TEXT
  8
1-d
 10
1020.0002
 20
137.49996
 40
25
 41
1
 50
0
  1
度
  0
TEXT
  8
1-d
 10
855.00014
 20
97.499924
 40
25
 41
1
 50
0
  1
製
  0
TEXT
  8
1-d
 10
855.00014
 20
37.49994
 40
25
 41
1
 50
0
  1
図
  0
TEXT
  8
1-d
 10
1555.0002
 20
177.49997
 40
25
 41
1
 50
0
  1
日
  0
TEXT
  8
1-d
 10
1555.0002
 20
137.49996
 40
25
 41
1
 50
0
  1
付
  0
TEXT
  8
1-d
 10
1111.4262
 20
103.48221
 40
20
 41
1
 50
0
  1
株式
  0
TEXT
  8
1-d
 10
1111.4262
 20
81.851798
 40
20
 41
1
 50
0
  1
会社
  0
TEXT
  8
1-d
 10
1174.2245
 20
83.247297
 40
40
 41
1
 50
0
  1
スズキベンチレーター
  0
TEXT
  8
1-d
 10
1237.9179
 20
34.024276
 40
20
 41
1
 50
0
  1
TEL(054)296-7000  FAX(054)296-7001
  0
TEXT
  8
1-d
 10
254.99986
 20
97.499924
 40
25
 41
1
 50
0
  1
図
  0
TEXT
  8
1-d
 10
1487.6875
 20
1579.6764
 40
30
 41
1
 50
0
  1
網、水平付け
  0
TEXT
  8
1-d
 10
1084.3491
 20
150.10071
 40
40
 41
1
 50
0
  1
１／６
  0
TEXT
  8
1-d
 10
245.33786
 20
2780.4054
 40
50
 41
1
 50
0
  1
ＡＳ－３００　自然回転  直付型（網付）断面
  0
TEXT
  8
1-d
 10
261.37484
 20
154.91192
 40
30
 41
1
 50
0
  1
ＡＳ－３００　自然回転  直付型（網付）断面
  0
TEXT
  8
1-d
 10
302.5895
 20
84.985422
 40
30
 41
1
 50
0
  1
30-A08c
  0
TEXT
  8
1-d
 10
1235.6794
 20
58.646024
 40
20
 41
1
 50
0
  1
〒421-2114　静岡市葵区安倍口新田１５２番地
  0
POINT
  8
1-8
 62
    2
 10
266.66702
 20
1459.7722
  0
POINT
  8
1-8
 62
    2
 10
266.66702
 20
2409.7722
  0
POINT
  8
1-8
 62
    2
 10
624.99999
 20
2555.2124
  0
POINT
  8
1-8
 62
    2
 10
1475.0013
 20
2555.2124
  0
POINT
  8
1-8
 62
    2
 10
787.50004
 20
1336.6449
  0
POINT
  8
1-8
 62
    2
 10
1312.5
 20
1336.6445
  0
POINT
  8
1-d
 62
    2
 10
1206.6055
 20
1645.1458
  0
ENDSEC
  0
EOF
