  0
SECTION
  2
HEADER
  9
$EXTMIN
 10
0
 20
0
  9
$EXTMAX
 10
4200
 20
2970
  0
ENDSEC
  0
SECTION
  2
TABLES
  0
TABLE
  2
LTYPE
 70
     9
  0
LTYPE
  2
CONTINUOUS
 70
    64
  3
実線
 72
    65
 73
     0
 40
0.0
  0
LTYPE
  2
DASHED1
 70
    64
  3
--  --  --  --  --  --  --  --  
 72
    65
 73
     2
 40
2.5
 49
1.25
 49
-1.25
  0
LTYPE
  2
DASHED2
 70
    64
  3
----    ----    ----    ----    
 72
    65
 73
     2
 40
5.0
 49
2.5
 49
-2.5
  0
LTYPE
  2
DASHED3
 70
    64
  3
------  ------  ------  ------  
 72
    65
 73
     2
 40
5.0
 49
3.75
 49
-1.25
  0
LTYPE
  2
CENTER1
 70
    64
  3
----- - ----- - ----- - ----- - 
 72
    65
 73
     4
 40
10.0
 49
6.25
 49
-1.25
 49
1.25
 49
-1.25
  0
LTYPE
  2
CENTER2
 70
    64
  3
----------  --  ----------  --  
 72
    65
 73
     4
 40
20.0
 49
12.5
 49
-2.5
 49
2.5
 49
-2.5
  0
LTYPE
  2
PHANTOM1
 70
    64
  3
--- - - --- - - --- - - --- - - 
 72
    65
 73
     6
 40
10.0
 49
3.25
 49
-1.25
 49
1.25
 49
-1.25
 49
1.25
 49
-1.25
  0
LTYPE
  2
PHANTOM2
 70
    64
  3
--------  -  -  --------  -  -  
 72
    65
 73
     6
 40
20.0
 49
10.0
 49
-2.5
 49
1.25
 49
-2.5
 49
1.25
 49
-2.5
  0
LTYPE
  2
DOT
 70
    64
  3
-   -   -   -   -   -   -   -   
 72
    65
 73
     2
 40
2.5
 49
0.625
 49
-1.875
  0
ENDTAB
  0
TABLE
  2
STYLE
 70
    1
  0
STYLE
  2
STANDARD
 70
    64
 40
0.0
 41
1.0
 42
0.0
 50
0.0
 71
     0
  3
TXT
  4
BIGFONT
  0
ENDTAB
  0
TABLE
  2
LAYER
 70
    5
  0
LAYER
  2
1-1
 70
   64
 62
    7
  6
CONTINUOUS
  0
LAYER
  2
1-2
 70
   64
 62
    7
  6
CONTINUOUS
  0
LAYER
  2
1-8
 70
   64
 62
    7
  6
CONTINUOUS
  0
LAYER
  2
1-d
 70
   64
 62
    7
  6
CONTINUOUS
  0
LAYER
  2
ADD_LINE
 70
   64
 62
    7
  6
CONTINUOUS
  0
ENDTAB
  0
ENDSEC
  0
SECTION
  2
ENTITIES
  0
LINE
  8
1-8
  6
CONTINUOUS
 62
    7
 10
624.99999
 20
2369.808
 11
1475.0013
 21
2369.808
  0
LINE
  8
1-d
  6
CONTINUOUS
 62
    7
 10
250.00003
 20
2757.7013
 11
1850.0001
 21
2757.7013
  0
LINE
  8
1-d
  6
CONTINUOUS
 62
    7
 10
250.00003
 20
2767.7014
 11
1850.0001
 21
2767.7014
  0
LINE
  8
1-8
  6
CONTINUOUS
 62
    7
 10
1475.0013
 20
2148.6992
 11
1475.0013
 21
2369.808
  0
LINE
  8
1-8
  6
CONTINUOUS
 62
    7
 10
624.99999
 20
2369.808
 11
624.99999
 21
2148.6992
  0
LINE
  8
1-2
  6
CONTINUOUS
 62
    3
 10
625.0011
 20
1649.3681
 11
1475.0025
 21
1649.3681
  0
LINE
  8
1-2
  6
CONTINUOUS
 62
    3
 10
624.99999
 20
1566.0336
 11
1475.0013
 21
1566.0336
  0
LINE
  8
1-2
  6
CONTINUOUS
 62
    3
 10
625.0011
 20
1649.3681
 11
624.99999
 21
1566.0333
  0
LINE
  8
1-2
  6
CONTINUOUS
 62
    3
 10
787.4988
 20
1324.3682
 11
1312.5
 21
1324.368
  0
LINE
  8
1-2
  6
CONTINUOUS
 62
    3
 10
787.4988
 20
1341.0345
 11
1312.5
 21
1341.0343
  0
LINE
  8
1-2
  6
CONTINUOUS
 62
    3
 10
787.50004
 20
1291.0339
 11
1312.5013
 21
1291.0339
  0
LINE
  8
1-2
  6
CONTINUOUS
 62
    3
 10
787.4988
 20
1324.3682
 11
787.50004
 21
1291.0336
  0
LINE
  8
1-2
  6
CONTINUOUS
 62
    3
 10
1312.4988
 20
1324.368
 11
1312.5
 21
1291.0336
  0
LINE
  8
1-2
  6
CONTINUOUS
 62
    3
 10
787.50004
 20
1466.0342
 11
787.4988
 21
1341.0345
  0
LINE
  8
1-2
  6
CONTINUOUS
 62
    3
 10
1312.5
 20
1466.0342
 11
1312.4988
 21
1341.0343
  0
LINE
  8
1-2
  6
CONTINUOUS
 62
    3
 10
1312.4988
 20
1324.368
 11
1312.5
 21
1291.0336
  0
LINE
  8
1-2
  6
CONTINUOUS
 62
    3
 10
1475.0013
 20
1649.3681
 11
1475.0001
 21
1566.0333
  0
LINE
  8
1-2
  6
CONTINUOUS
 62
    3
 10
624.99999
 20
1549.3672
 11
1475.0013
 21
1549.3672
  0
LINE
  8
1-2
  6
CONTINUOUS
 62
    3
 10
624.99986
 20
1999.3675
 11
1475.0013
 21
1999.3675
  0
LINE
  8
1-2
  6
CONTINUOUS
 62
    3
 10
624.99986
 20
2016.0343
 11
1475.0013
 21
2016.0343
  0
LINE
  8
1-2
  6
CONTINUOUS
 62
    3
 10
624.99986
 20
1916.034
 11
1475.0013
 21
1916.034
  0
LINE
  8
1-2
  6
CONTINUOUS
 62
    3
 10
624.99986
 20
1999.3675
 11
624.99986
 21
1916.0335
  0
LINE
  8
1-2
  6
CONTINUOUS
 62
    3
 10
1475.0001
 20
1999.3675
 11
1475.0001
 21
1916.0335
  0
LINE
  8
1-2
  6
CONTINUOUS
 62
    3
 10
624.99986
 20
1899.3677
 11
1475.0013
 21
1899.3677
  0
LINE
  8
1-8
  6
CONTINUOUS
 62
    7
 10
497.7199
 20
1274.3673
 11
433.33371
 21
1274.3673
  0
LINE
  8
1-8
  6
CONTINUOUS
 62
    7
 10
568.55178
 20
2224.3678
 11
433.33371
 21
2224.3678
  0
LINE
  8
1-2
  6
CONTINUOUS
 62
    3
 10
624.99999
 20
1549.3672
 11
708.33327
 21
1466.0342
  0
LINE
  8
1-2
  6
CONTINUOUS
 62
    3
 10
1475.0001
 20
2016.0343
 11
1391.667
 21
2099.3676
  0
LINE
  8
1-2
  6
CONTINUOUS
 62
    3
 10
624.99986
 20
2016.0343
 11
708.33302
 21
2099.3676
  0
LINE
  8
1-2
  6
CONTINUOUS
 62
    3
 10
975.96061
 20
2092.4796
 11
976.64651
 21
2092.6632
  0
LINE
  8
1-2
  6
CONTINUOUS
 62
    3
 10
976.64651
 20
2092.6632
 11
977.29084
 21
2092.9131
  0
LINE
  8
1-2
  6
CONTINUOUS
 62
    3
 10
977.29084
 20
2092.9131
 11
977.89398
 21
2093.2239
  0
LINE
  8
1-2
  6
CONTINUOUS
 62
    3
 10
977.89398
 20
2093.2239
 11
978.4569
 21
2093.5919
  0
LINE
  8
1-2
  6
CONTINUOUS
 62
    3
 10
978.4569
 20
2093.5919
 11
978.98024
 21
2094.0125
  0
LINE
  8
1-2
  6
CONTINUOUS
 62
    3
 10
978.98024
 20
2094.0125
 11
979.46485
 21
2094.4802
  0
LINE
  8
1-2
  6
CONTINUOUS
 62
    3
 10
979.46485
 20
2094.4802
 11
979.91148
 21
2094.9904
  0
LINE
  8
1-2
  6
CONTINUOUS
 62
    3
 10
979.91148
 20
2094.9904
 11
980.32099
 21
2095.5392
  0
LINE
  8
1-2
  6
CONTINUOUS
 62
    3
 10
980.32099
 20
2095.5392
 11
980.69376
 21
2096.1207
  0
LINE
  8
1-2
  6
CONTINUOUS
 62
    3
 10
980.69376
 20
2096.1207
 11
981.03102
 21
2096.7314
  0
LINE
  8
1-2
  6
CONTINUOUS
 62
    3
 10
981.03102
 20
2096.7314
 11
981.33314
 21
2097.3661
  0
LINE
  8
1-2
  6
CONTINUOUS
 62
    3
 10
981.33314
 20
2097.3661
 11
981.60112
 21
2098.0203
  0
LINE
  8
1-2
  6
CONTINUOUS
 62
    3
 10
981.60112
 20
2098.0203
 11
981.83557
 21
2098.6891
  0
LINE
  8
1-2
  6
CONTINUOUS
 62
    3
 10
981.83557
 20
2098.6891
 11
982.03736
 21
2099.3676
  0
LINE
  8
1-2
  6
CONTINUOUS
 62
    3
 10
972.19321
 20
2092.443
 11
971.40004
 21
2092.6979
  0
LINE
  8
1-2
  6
CONTINUOUS
 62
    3
 10
971.40004
 20
2092.6979
 11
970.65587
 21
2092.9987
  0
LINE
  8
1-2
  6
CONTINUOUS
 62
    3
 10
970.65587
 20
2092.9987
 11
969.95994
 21
2093.3439
  0
LINE
  8
1-2
  6
CONTINUOUS
 62
    3
 10
969.95994
 20
2093.3439
 11
969.31215
 21
2093.7304
  0
LINE
  8
1-2
  6
CONTINUOUS
 62
    3
 10
969.31215
 20
2093.7304
 11
968.71173
 21
2094.156
  0
LINE
  8
1-2
  6
CONTINUOUS
 62
    3
 10
968.71173
 20
2094.156
 11
968.15809
 21
2094.6187
  0
LINE
  8
1-2
  6
CONTINUOUS
 62
    3
 10
968.15809
 20
2094.6187
 11
967.65096
 21
2095.1161
  0
LINE
  8
1-2
  6
CONTINUOUS
 62
    3
 10
967.65096
 20
2095.1161
 11
967.18961
 21
2095.6456
  0
LINE
  8
1-2
  6
CONTINUOUS
 62
    3
 10
967.18961
 20
2095.6456
 11
966.77341
 21
2096.2048
  0
LINE
  8
1-2
  6
CONTINUOUS
 62
    3
 10
966.77341
 20
2096.2048
 11
966.40213
 21
2096.7913
  0
LINE
  8
1-2
  6
CONTINUOUS
 62
    3
 10
966.40213
 20
2096.7913
 11
966.07501
 21
2097.4037
  0
LINE
  8
1-2
  6
CONTINUOUS
 62
    3
 10
966.07501
 20
2097.4037
 11
965.79169
 21
2098.0384
  0
LINE
  8
1-2
  6
CONTINUOUS
 62
    3
 10
965.79169
 20
2098.0384
 11
965.55155
 21
2098.6941
  0
LINE
  8
1-2
  6
CONTINUOUS
 62
    3
 10
965.55155
 20
2098.6941
 11
965.35397
 21
2099.3676
  0
LINE
  8
1-2
  6
CONTINUOUS
 62
    3
 10
932.63909
 20
2099.3676
 11
931.87079
 21
2098.2487
  0
LINE
  8
1-2
  6
CONTINUOUS
 62
    3
 10
931.87079
 20
2098.2487
 11
931.09358
 21
2097.254
  0
LINE
  8
1-2
  6
CONTINUOUS
 62
    3
 10
931.09358
 20
2097.254
 11
930.31055
 21
2096.3756
  0
LINE
  8
1-2
  6
CONTINUOUS
 62
    3
 10
930.31055
 20
2096.3756
 11
929.52469
 21
2095.6068
  0
LINE
  8
1-2
  6
CONTINUOUS
 62
    3
 10
929.52469
 20
2095.6068
 11
928.73919
 21
2094.9409
  0
LINE
  8
1-2
  6
CONTINUOUS
 62
    3
 10
928.73919
 20
2094.9409
 11
927.95691
 21
2094.3713
  0
LINE
  8
1-2
  6
CONTINUOUS
 62
    3
 10
927.95691
 20
2094.3713
 11
927.18094
 21
2093.8908
  0
LINE
  8
1-2
  6
CONTINUOUS
 62
    3
 10
927.18094
 20
2093.8908
 11
926.41437
 21
2093.4924
  0
LINE
  8
1-2
  6
CONTINUOUS
 62
    3
 10
926.41437
 20
2093.4924
 11
925.66029
 21
2093.1692
  0
LINE
  8
1-2
  6
CONTINUOUS
 62
    3
 10
925.66029
 20
2093.1692
 11
924.92169
 21
2092.9146
  0
LINE
  8
1-2
  6
CONTINUOUS
 62
    3
 10
924.92169
 20
2092.9146
 11
924.20164
 21
2092.7216
  0
LINE
  8
1-2
  6
CONTINUOUS
 62
    3
 10
924.20164
 20
2092.7216
 11
923.50336
 21
2092.583
  0
LINE
  8
1-2
  6
CONTINUOUS
 62
    3
 10
923.50336
 20
2092.583
 11
922.82958
 21
2092.4925
  0
LINE
  8
1-2
  6
CONTINUOUS
 62
    3
 10
922.82958
 20
2092.4925
 11
922.18364
 21
2092.443
  0
LINE
  8
1-2
  6
CONTINUOUS
 62
    3
 10
916.68615
 20
2099.3676
 11
916.70916
 21
2098.5629
  0
LINE
  8
1-2
  6
CONTINUOUS
 62
    3
 10
916.70916
 20
2098.5629
 11
916.77869
 21
2097.8189
  0
LINE
  8
1-2
  6
CONTINUOUS
 62
    3
 10
916.77869
 20
2097.8189
 11
916.89709
 21
2097.1335
  0
LINE
  8
1-2
  6
CONTINUOUS
 62
    3
 10
916.89709
 20
2097.1335
 11
917.06733
 21
2096.5018
  0
LINE
  8
1-2
  6
CONTINUOUS
 62
    3
 10
917.06733
 20
2096.5018
 11
917.292
 21
2095.9215
  0
LINE
  8
1-2
  6
CONTINUOUS
 62
    3
 10
917.292
 20
2095.9215
 11
917.57334
 21
2095.389
  0
LINE
  8
1-2
  6
CONTINUOUS
 62
    3
 10
917.57334
 20
2095.389
 11
917.91419
 21
2094.9008
  0
LINE
  8
1-2
  6
CONTINUOUS
 62
    3
 10
917.91419
 20
2094.9008
 11
918.31715
 21
2094.4534
  0
LINE
  8
1-2
  6
CONTINUOUS
 62
    3
 10
918.31715
 20
2094.4534
 11
918.78468
 21
2094.0439
  0
LINE
  8
1-2
  6
CONTINUOUS
 62
    3
 10
918.78468
 20
2094.0439
 11
919.31952
 21
2093.6686
  0
LINE
  8
1-2
  6
CONTINUOUS
 62
    3
 10
919.31952
 20
2093.6686
 11
919.92439
 21
2093.3241
  0
LINE
  8
1-2
  6
CONTINUOUS
 62
    3
 10
919.92439
 20
2093.3241
 11
920.60151
 21
2093.0072
  0
LINE
  8
1-2
  6
CONTINUOUS
 62
    3
 10
920.60151
 20
2093.0072
 11
921.35385
 21
2092.7142
  0
LINE
  8
1-2
  6
CONTINUOUS
 62
    3
 10
921.35385
 20
2092.7142
 11
922.18364
 21
2092.443
  0
LINE
  8
1-2
  6
CONTINUOUS
 62
    3
 10
870.90409
 20
2099.3676
 11
871.29591
 21
2098.4226
  0
LINE
  8
1-2
  6
CONTINUOUS
 62
    3
 10
871.29591
 20
2098.4226
 11
871.70393
 21
2097.565
  0
LINE
  8
1-2
  6
CONTINUOUS
 62
    3
 10
871.70393
 20
2097.565
 11
872.12792
 21
2096.7913
  0
LINE
  8
1-2
  6
CONTINUOUS
 62
    3
 10
872.12792
 20
2096.7913
 11
872.56738
 21
2096.0967
  0
LINE
  8
1-2
  6
CONTINUOUS
 62
    3
 10
872.56738
 20
2096.0967
 11
873.0218
 21
2095.4778
  0
LINE
  8
1-2
  6
CONTINUOUS
 62
    3
 10
873.0218
 20
2095.4778
 11
873.49095
 21
2094.9298
  0
LINE
  8
1-2
  6
CONTINUOUS
 62
    3
 10
873.49095
 20
2094.9298
 11
873.9742
 21
2094.448
  0
LINE
  8
1-2
  6
CONTINUOUS
 62
    3
 10
873.9742
 20
2094.448
 11
874.47143
 21
2094.0291
  0
LINE
  8
1-2
  6
CONTINUOUS
 62
    3
 10
874.47143
 20
2094.0291
 11
874.98189
 21
2093.6678
  0
LINE
  8
1-2
  6
CONTINUOUS
 62
    3
 10
874.98189
 20
2093.6678
 11
875.50548
 21
2093.3612
  0
LINE
  8
1-2
  6
CONTINUOUS
 62
    3
 10
875.50548
 20
2093.3612
 11
876.04168
 21
2093.1044
  0
LINE
  8
1-2
  6
CONTINUOUS
 62
    3
 10
876.04168
 20
2093.1044
 11
876.59025
 21
2092.8933
  0
LINE
  8
1-2
  6
CONTINUOUS
 62
    3
 10
876.59025
 20
2092.8933
 11
877.15033
 21
2092.7233
  0
LINE
  8
1-2
  6
CONTINUOUS
 62
    3
 10
877.15033
 20
2092.7233
 11
877.72204
 21
2092.5905
  0
LINE
  8
1-2
  6
CONTINUOUS
 62
    3
 10
878.97904
 20
2092.5905
 11
879.57512
 21
2092.7036
  0
LINE
  8
1-2
  6
CONTINUOUS
 62
    3
 10
879.57512
 20
2092.7036
 11
880.1665
 21
2092.8842
  0
LINE
  8
1-2
  6
CONTINUOUS
 62
    3
 10
880.1665
 20
2092.8842
 11
880.75293
 21
2093.1309
  0
LINE
  8
1-2
  6
CONTINUOUS
 62
    3
 10
880.75293
 20
2093.1309
 11
881.33479
 21
2093.4446
  0
LINE
  8
1-2
  6
CONTINUOUS
 62
    3
 10
881.33479
 20
2093.4446
 11
881.91145
 21
2093.8252
  0
LINE
  8
1-2
  6
CONTINUOUS
 62
    3
 10
881.91145
 20
2093.8252
 11
882.48353
 21
2094.2723
  0
LINE
  8
1-2
  6
CONTINUOUS
 62
    3
 10
882.48353
 20
2094.2723
 11
883.05066
 21
2094.787
  0
LINE
  8
1-2
  6
CONTINUOUS
 62
    3
 10
883.05066
 20
2094.787
 11
883.61309
 21
2095.3685
  0
LINE
  8
1-2
  6
CONTINUOUS
 62
    3
 10
883.61309
 20
2095.3685
 11
884.17057
 21
2096.016
  0
LINE
  8
1-2
  6
CONTINUOUS
 62
    3
 10
828.99891
 20
2099.3676
 11
829.11236
 21
2098.6471
  0
LINE
  8
1-2
  6
CONTINUOUS
 62
    3
 10
829.11236
 20
2098.6471
 11
829.2732
 21
2097.9765
  0
LINE
  8
1-2
  6
CONTINUOUS
 62
    3
 10
829.2732
 20
2097.9765
 11
829.47796
 21
2097.3534
  0
LINE
  8
1-2
  6
CONTINUOUS
 62
    3
 10
829.47796
 20
2097.3534
 11
829.72267
 21
2096.7764
  0
LINE
  8
1-2
  6
CONTINUOUS
 62
    3
 10
829.72267
 20
2096.7764
 11
830.00389
 21
2096.2427
  0
LINE
  8
1-2
  6
CONTINUOUS
 62
    3
 10
830.00389
 20
2096.2427
 11
830.31826
 21
2095.7513
  0
LINE
  8
1-2
  6
CONTINUOUS
 62
    3
 10
830.31826
 20
2095.7513
 11
830.66257
 21
2095.2999
  0
LINE
  8
1-2
  6
CONTINUOUS
 62
    3
 10
830.66257
 20
2095.2999
 11
831.03398
 21
2094.8877
  0
LINE
  8
1-2
  6
CONTINUOUS
 62
    3
 10
831.03398
 20
2094.8877
 11
831.42976
 21
2094.5123
  0
LINE
  8
1-2
  6
CONTINUOUS
 62
    3
 10
831.42976
 20
2094.5123
 11
831.84694
 21
2094.1733
  0
LINE
  8
1-2
  6
CONTINUOUS
 62
    3
 10
831.84694
 20
2094.1733
 11
832.28355
 21
2093.8695
  0
LINE
  8
1-2
  6
CONTINUOUS
 62
    3
 10
832.28355
 20
2093.8695
 11
832.73711
 21
2093.5993
  0
LINE
  8
1-2
  6
CONTINUOUS
 62
    3
 10
832.73711
 20
2093.5993
 11
833.20564
 21
2093.3617
  0
LINE
  8
1-2
  6
CONTINUOUS
 62
    3
 10
833.20564
 20
2093.3617
 11
833.68728
 21
2093.1564
  0
LINE
  8
1-2
  6
CONTINUOUS
 62
    3
 10
833.68728
 20
2093.1564
 11
834.18043
 21
2092.9824
  0
LINE
  8
1-2
  6
CONTINUOUS
 62
    3
 10
834.18043
 20
2092.9824
 11
834.68372
 21
2092.8389
  0
LINE
  8
1-2
  6
CONTINUOUS
 62
    3
 10
834.68372
 20
2092.8389
 11
835.19542
 21
2092.7263
  0
LINE
  8
1-2
  6
CONTINUOUS
 62
    3
 10
835.19542
 20
2092.7263
 11
835.71492
 21
2092.6437
  0
LINE
  8
1-2
  6
CONTINUOUS
 62
    3
 10
835.71492
 20
2092.6437
 11
836.2411
 21
2092.5905
  0
LINE
  8
1-2
  6
CONTINUOUS
 62
    3
 10
836.37386
 20
2092.5967
 11
836.67017
 21
2092.6261
  0
LINE
  8
1-2
  6
CONTINUOUS
 62
    3
 10
836.67017
 20
2092.6261
 11
836.9614
 21
2092.6682
  0
LINE
  8
1-2
  6
CONTINUOUS
 62
    3
 10
836.9614
 20
2092.6682
 11
837.24732
 21
2092.7233
  0
LINE
  8
1-2
  6
CONTINUOUS
 62
    3
 10
837.24732
 20
2092.7233
 11
837.52829
 21
2092.7909
  0
LINE
  8
1-2
  6
CONTINUOUS
 62
    3
 10
837.52829
 20
2092.7909
 11
837.80418
 21
2092.8711
  0
LINE
  8
1-2
  6
CONTINUOUS
 62
    3
 10
837.80418
 20
2092.8711
 11
838.07501
 21
2092.9641
  0
LINE
  8
1-2
  6
CONTINUOUS
 62
    3
 10
838.07501
 20
2092.9641
 11
838.34063
 21
2093.0703
  0
LINE
  8
1-2
  6
CONTINUOUS
 62
    3
 10
838.34063
 20
2093.0703
 11
838.60119
 21
2093.189
  0
LINE
  8
1-2
  6
CONTINUOUS
 62
    3
 10
838.60119
 20
2093.189
 11
838.85654
 21
2093.3204
  0
LINE
  8
1-2
  6
CONTINUOUS
 62
    3
 10
716.6345
 20
2099.3676
 11
716.73595
 21
2098.6099
  0
LINE
  8
1-2
  6
CONTINUOUS
 62
    3
 10
716.73595
 20
2098.6099
 11
716.8431
 21
2097.9171
  0
LINE
  8
1-2
  6
CONTINUOUS
 62
    3
 10
716.8431
 20
2097.9171
 11
716.95642
 21
2097.2903
  0
LINE
  8
1-2
  6
CONTINUOUS
 62
    3
 10
716.95642
 20
2097.2903
 11
717.07556
 21
2096.7282
  0
LINE
  8
1-2
  6
CONTINUOUS
 62
    3
 10
717.07556
 20
2096.7282
 11
717.20052
 21
2096.232
  0
LINE
  8
1-2
  6
CONTINUOUS
 62
    3
 10
717.20052
 20
2096.232
 11
717.33142
 21
2095.801
  0
LINE
  8
1-2
  6
CONTINUOUS
 62
    3
 10
717.33142
 20
2095.801
 11
717.46813
 21
2095.4353
  0
LINE
  8
1-2
  6
CONTINUOUS
 62
    3
 10
717.46813
 20
2095.4353
 11
717.61078
 21
2095.1354
  0
LINE
  8
1-2
  6
CONTINUOUS
 62
    3
 10
717.61078
 20
2095.1354
 11
717.75924
 21
2094.9008
  0
LINE
  8
1-2
  6
CONTINUOUS
 62
    3
 10
735.08077
 20
2099.3676
 11
735.13694
 21
2098.7676
  0
LINE
  8
1-2
  6
CONTINUOUS
 62
    3
 10
735.13694
 20
2098.7676
 11
735.22973
 21
2098.1999
  0
LINE
  8
1-2
  6
CONTINUOUS
 62
    3
 10
735.22973
 20
2098.1999
 11
735.35494
 21
2097.6652
  0
LINE
  8
1-2
  6
CONTINUOUS
 62
    3
 10
735.35494
 20
2097.6652
 11
735.50934
 21
2097.1632
  0
LINE
  8
1-2
  6
CONTINUOUS
 62
    3
 10
735.50934
 20
2097.1632
 11
735.68935
 21
2096.6943
  0
LINE
  8
1-2
  6
CONTINUOUS
 62
    3
 10
735.68935
 20
2096.6943
 11
735.89151
 21
2096.2593
  0
LINE
  8
1-2
  6
CONTINUOUS
 62
    3
 10
735.89151
 20
2096.2593
 11
736.11185
 21
2095.8567
  0
LINE
  8
1-2
  6
CONTINUOUS
 62
    3
 10
736.11185
 20
2095.8567
 11
736.34692
 21
2095.4885
  0
LINE
  8
1-2
  6
CONTINUOUS
 62
    3
 10
736.34692
 20
2095.4885
 11
736.59312
 21
2095.1532
  0
LINE
  8
1-2
  6
CONTINUOUS
 62
    3
 10
736.59312
 20
2095.1532
 11
736.84687
 21
2094.8526
  0
LINE
  8
1-2
  6
CONTINUOUS
 62
    3
 10
736.84687
 20
2094.8526
 11
737.10458
 21
2094.5861
  0
LINE
  8
1-2
  6
CONTINUOUS
 62
    3
 10
737.10458
 20
2094.5861
 11
737.36266
 21
2094.3535
  0
LINE
  8
1-2
  6
CONTINUOUS
 62
    3
 10
737.36266
 20
2094.3535
 11
737.61753
 21
2094.1555
  0
LINE
  8
1-2
  6
CONTINUOUS
 62
    3
 10
737.61753
 20
2094.1555
 11
737.86558
 21
2093.9922
  0
LINE
  8
1-2
  6
CONTINUOUS
 62
    3
 10
760.34426
 20
2099.3676
 11
760.51177
 21
2098.6995
  0
LINE
  8
1-2
  6
CONTINUOUS
 62
    3
 10
760.51177
 20
2098.6995
 11
760.71579
 21
2098.0742
  0
LINE
  8
1-2
  6
CONTINUOUS
 62
    3
 10
760.71579
 20
2098.0742
 11
760.95469
 21
2097.4908
  0
LINE
  8
1-2
  6
CONTINUOUS
 62
    3
 10
760.95469
 20
2097.4908
 11
761.227
 21
2096.9496
  0
LINE
  8
1-2
  6
CONTINUOUS
 62
    3
 10
761.227
 20
2096.9496
 11
761.53135
 21
2096.4493
  0
LINE
  8
1-2
  6
CONTINUOUS
 62
    3
 10
761.53135
 20
2096.4493
 11
761.86613
 21
2095.9903
  0
LINE
  8
1-2
  6
CONTINUOUS
 62
    3
 10
761.86613
 20
2095.9903
 11
762.23012
 21
2095.5731
  0
LINE
  8
1-2
  6
CONTINUOUS
 62
    3
 10
762.23012
 20
2095.5731
 11
762.62169
 21
2095.1953
  0
LINE
  8
1-2
  6
CONTINUOUS
 62
    3
 10
762.62169
 20
2095.1953
 11
763.03937
 21
2094.8588
  0
LINE
  8
1-2
  6
CONTINUOUS
 62
    3
 10
763.03937
 20
2094.8588
 11
763.48179
 21
2094.5611
  0
LINE
  8
1-2
  6
CONTINUOUS
 62
    3
 10
763.48179
 20
2094.5611
 11
763.94747
 21
2094.3037
  0
LINE
  8
1-2
  6
CONTINUOUS
 62
    3
 10
763.94747
 20
2094.3037
 11
764.43493
 21
2094.085
  0
LINE
  8
1-2
  6
CONTINUOUS
 62
    3
 10
764.43493
 20
2094.085
 11
764.94255
 21
2093.9061
  0
LINE
  8
1-2
  6
CONTINUOUS
 62
    3
 10
764.94255
 20
2093.9061
 11
765.46923
 21
2093.7651
  0
LINE
  8
1-2
  6
CONTINUOUS
 62
    3
 10
791.86364
 20
2099.3676
 11
792.11701
 21
2098.6676
  0
LINE
  8
1-2
  6
CONTINUOUS
 62
    3
 10
792.11701
 20
2098.6676
 11
792.4137
 21
2098.0186
  0
LINE
  8
1-2
  6
CONTINUOUS
 62
    3
 10
792.4137
 20
2098.0186
 11
792.75021
 21
2097.421
  0
LINE
  8
1-2
  6
CONTINUOUS
 62
    3
 10
792.75021
 20
2097.421
 11
793.12311
 21
2096.8746
  0
LINE
  8
1-2
  6
CONTINUOUS
 62
    3
 10
793.12311
 20
2096.8746
 11
793.52841
 21
2096.38
  0
LINE
  8
1-2
  6
CONTINUOUS
 62
    3
 10
793.52841
 20
2096.38
 11
793.96254
 21
2095.9368
  0
LINE
  8
1-2
  6
CONTINUOUS
 62
    3
 10
793.96254
 20
2095.9368
 11
794.42167
 21
2095.5442
  0
LINE
  8
1-2
  6
CONTINUOUS
 62
    3
 10
794.42167
 20
2095.5442
 11
794.9017
 21
2095.2022
  0
LINE
  8
1-2
  6
CONTINUOUS
 62
    3
 10
794.9017
 20
2095.2022
 11
795.39893
 21
2094.91
  0
LINE
  8
1-2
  6
CONTINUOUS
 62
    3
 10
795.39893
 20
2094.91
 11
795.90878
 21
2094.667
  0
LINE
  8
1-2
  6
CONTINUOUS
 62
    3
 10
795.90878
 20
2094.667
 11
796.42742
 21
2094.472
  0
LINE
  8
1-2
  6
CONTINUOUS
 62
    3
 10
796.42742
 20
2094.472
 11
796.95013
 21
2094.3225
  0
LINE
  8
1-2
  6
CONTINUOUS
 62
    3
 10
796.95013
 20
2094.3225
 11
797.4726
 21
2094.2196
  0
LINE
  8
1-2
  6
CONTINUOUS
 62
    3
 10
797.4726
 20
2094.2196
 11
797.99049
 21
2094.1602
  0
LINE
  8
1-2
  6
CONTINUOUS
 62
    3
 10
797.99049
 20
2094.1602
 11
798.49886
 21
2094.1419
  0
LINE
  8
1-2
  6
CONTINUOUS
 62
    3
 10
798.49886
 20
2094.1419
 11
798.99312
 21
2094.1642
  0
LINE
  8
1-2
  6
CONTINUOUS
 62
    3
 10
798.99312
 20
2094.1642
 11
799.4687
 21
2094.2236
  0
LINE
  8
1-2
  6
CONTINUOUS
 62
    3
 10
799.4687
 20
2094.2236
 11
799.92028
 21
2094.3186
  0
LINE
  8
1-2
  6
CONTINUOUS
 62
    3
 10
799.92028
 20
2094.3186
 11
800.3429
 21
2094.4463
  0
LINE
  8
1-2
  6
CONTINUOUS
 62
    3
 10
716.6345
 20
2099.3676
 11
708.33302
 21
2099.3676
  0
LINE
  8
1-2
  6
CONTINUOUS
 62
    3
 10
635.32577
 20
2016.0343
 11
716.6345
 21
2099.3676
  0
LINE
  8
1-2
  6
CONTINUOUS
 62
    3
 10
721.99813
 20
2099.3676
 11
641.99749
 21
2016.0343
  0
LINE
  8
1-2
  6
CONTINUOUS
 62
    3
 10
658.27124
 20
2016.0343
 11
735.08077
 21
2099.3676
  0
LINE
  8
1-2
  6
CONTINUOUS
 62
    3
 10
735.08077
 20
2099.3676
 11
721.99813
 21
2099.3676
  0
LINE
  8
1-2
  6
CONTINUOUS
 62
    3
 10
742.7686
 20
2099.3676
 11
667.83392
 21
2016.0343
  0
LINE
  8
1-2
  6
CONTINUOUS
 62
    3
 10
760.34426
 20
2099.3676
 11
742.7686
 21
2099.3676
  0
LINE
  8
1-2
  6
CONTINUOUS
 62
    3
 10
689.69647
 20
2016.0343
 11
760.34426
 21
2099.3676
  0
LINE
  8
1-2
  6
CONTINUOUS
 62
    3
 10
770.18989
 20
2099.3676
 11
701.94338
 21
2016.0343
  0
LINE
  8
1-2
  6
CONTINUOUS
 62
    3
 10
791.87774
 20
2099.3676
 11
770.18989
 21
2099.3676
  0
LINE
  8
1-2
  6
CONTINUOUS
 62
    3
 10
728.92113
 20
2016.0343
 11
791.87774
 21
2099.3676
  0
LINE
  8
1-2
  6
CONTINUOUS
 62
    3
 10
803.668
 20
2099.3676
 11
743.58701
 21
2016.0343
  0
LINE
  8
1-2
  6
CONTINUOUS
 62
    3
 10
828.99891
 20
2099.3676
 11
803.668
 21
2099.3676
  0
LINE
  8
1-2
  6
CONTINUOUS
 62
    3
 10
775.09625
 20
2016.0343
 11
828.99891
 21
2099.3676
  0
LINE
  8
1-2
  6
CONTINUOUS
 62
    3
 10
842.47869
 20
2099.3676
 11
791.86364
 21
2016.0343
  0
LINE
  8
1-2
  6
CONTINUOUS
 62
    3
 10
870.90409
 20
2099.3676
 11
842.47869
 21
2099.3676
  0
LINE
  8
1-2
  6
CONTINUOUS
 62
    3
 10
827.22217
 20
2016.0343
 11
870.90409
 21
2099.3676
  0
LINE
  8
1-2
  6
CONTINUOUS
 62
    3
 10
885.78141
 20
2099.3676
 11
845.72807
 21
2016.0343
  0
LINE
  8
1-2
  6
CONTINUOUS
 62
    3
 10
916.68615
 20
2099.3676
 11
885.78141
 21
2099.3676
  0
LINE
  8
1-2
  6
CONTINUOUS
 62
    3
 10
884.17057
 20
2016.0343
 11
916.68615
 21
2099.3676
  0
LINE
  8
1-2
  6
CONTINUOUS
 62
    3
 10
904.01426
 20
2016.0343
 11
932.63909
 21
2099.3676
  0
LINE
  8
1-2
  6
CONTINUOUS
 62
    3
 10
965.35397
 20
2099.3676
 11
932.63909
 21
2099.3676
  0
LINE
  8
1-2
  6
CONTINUOUS
 62
    3
 10
965.35397
 20
2099.3676
 11
944.70858
 21
2016.0343
  0
LINE
  8
1-2
  6
CONTINUOUS
 62
    3
 10
965.46087
 20
2016.0343
 11
982.03736
 21
2099.3676
  0
LINE
  8
1-2
  6
CONTINUOUS
 62
    3
 10
1015.8543
 20
2099.3676
 11
982.03736
 21
2099.3676
  0
LINE
  8
1-2
  6
CONTINUOUS
 62
    3
 10
1015.8543
 20
2099.3676
 11
1007.526
 21
2016.0343
  0
LINE
  8
1-2
  6
CONTINUOUS
 62
    3
 10
1032.9065
 20
2099.3676
 11
1028.7374
 21
2016.0343
  0
LINE
  8
1-2
  6
CONTINUOUS
 62
    3
 10
1050
 20
2099.3676
 11
1032.9065
 21
2099.3676
  0
LINE
  8
1-2
  6
CONTINUOUS
 62
    3
 10
1475.0001
 20
2016.0343
 11
1391.667
 21
2099.3676
  0
LINE
  8
1-2
  6
CONTINUOUS
 62
    3
 10
1124.0393
 20
2092.4796
 11
1123.3535
 21
2092.6632
  0
LINE
  8
1-2
  6
CONTINUOUS
 62
    3
 10
1123.3535
 20
2092.6632
 11
1122.7092
 21
2092.9131
  0
LINE
  8
1-2
  6
CONTINUOUS
 62
    3
 10
1122.7092
 20
2092.9131
 11
1122.1061
 21
2093.2239
  0
LINE
  8
1-2
  6
CONTINUOUS
 62
    3
 10
1122.1061
 20
2093.2239
 11
1121.5431
 21
2093.5919
  0
LINE
  8
1-2
  6
CONTINUOUS
 62
    3
 10
1121.5431
 20
2093.5919
 11
1121.0198
 21
2094.0125
  0
LINE
  8
1-2
  6
CONTINUOUS
 62
    3
 10
1121.0198
 20
2094.0125
 11
1120.5352
 21
2094.4802
  0
LINE
  8
1-2
  6
CONTINUOUS
 62
    3
 10
1120.5352
 20
2094.4802
 11
1120.0886
 21
2094.9904
  0
LINE
  8
1-2
  6
CONTINUOUS
 62
    3
 10
1120.0886
 20
2094.9904
 11
1119.6791
 21
2095.5392
  0
LINE
  8
1-2
  6
CONTINUOUS
 62
    3
 10
1119.6791
 20
2095.5392
 11
1119.3063
 21
2096.1207
  0
LINE
  8
1-2
  6
CONTINUOUS
 62
    3
 10
1119.3063
 20
2096.1207
 11
1118.9689
 21
2096.7314
  0
LINE
  8
1-2
  6
CONTINUOUS
 62
    3
 10
1118.9689
 20
2096.7314
 11
1118.667
 21
2097.3661
  0
LINE
  8
1-2
  6
CONTINUOUS
 62
    3
 10
1118.667
 20
2097.3661
 11
1118.3989
 21
2098.0203
  0
LINE
  8
1-2
  6
CONTINUOUS
 62
    3
 10
1118.3989
 20
2098.0203
 11
1118.1644
 21
2098.6891
  0
LINE
  8
1-2
  6
CONTINUOUS
 62
    3
 10
1118.1644
 20
2098.6891
 11
1117.9627
 21
2099.3676
  0
LINE
  8
1-2
  6
CONTINUOUS
 62
    3
 10
1127.8068
 20
2092.443
 11
1128.6001
 21
2092.6979
  0
LINE
  8
1-2
  6
CONTINUOUS
 62
    3
 10
1128.6001
 20
2092.6979
 11
1129.3441
 21
2092.9987
  0
LINE
  8
1-2
  6
CONTINUOUS
 62
    3
 10
1129.3441
 20
2092.9987
 11
1130.0402
 21
2093.3439
  0
LINE
  8
1-2
  6
CONTINUOUS
 62
    3
 10
1130.0402
 20
2093.3439
 11
1130.6879
 21
2093.7304
  0
LINE
  8
1-2
  6
CONTINUOUS
 62
    3
 10
1130.6879
 20
2093.7304
 11
1131.2881
 21
2094.156
  0
LINE
  8
1-2
  6
CONTINUOUS
 62
    3
 10
1131.2881
 20
2094.156
 11
1131.842
 21
2094.6187
  0
LINE
  8
1-2
  6
CONTINUOUS
 62
    3
 10
1131.842
 20
2094.6187
 11
1132.3492
 21
2095.1161
  0
LINE
  8
1-2
  6
CONTINUOUS
 62
    3
 10
1132.3492
 20
2095.1161
 11
1132.8103
 21
2095.6456
  0
LINE
  8
1-2
  6
CONTINUOUS
 62
    3
 10
1132.8103
 20
2095.6456
 11
1133.2266
 21
2096.2048
  0
LINE
  8
1-2
  6
CONTINUOUS
 62
    3
 10
1133.2266
 20
2096.2048
 11
1133.5979
 21
2096.7913
  0
LINE
  8
1-2
  6
CONTINUOUS
 62
    3
 10
1133.5979
 20
2096.7913
 11
1133.925
 21
2097.4037
  0
LINE
  8
1-2
  6
CONTINUOUS
 62
    3
 10
1133.925
 20
2097.4037
 11
1134.2084
 21
2098.0384
  0
LINE
  8
1-2
  6
CONTINUOUS
 62
    3
 10
1134.2084
 20
2098.0384
 11
1134.4484
 21
2098.6941
  0
LINE
  8
1-2
  6
CONTINUOUS
 62
    3
 10
1134.4484
 20
2098.6941
 11
1134.6458
 21
2099.3676
  0
LINE
  8
1-2
  6
CONTINUOUS
 62
    3
 10
1167.361
 20
2099.3676
 11
1168.1293
 21
2098.2487
  0
LINE
  8
1-2
  6
CONTINUOUS
 62
    3
 10
1168.1293
 20
2098.2487
 11
1168.9064
 21
2097.254
  0
LINE
  8
1-2
  6
CONTINUOUS
 62
    3
 10
1168.9064
 20
2097.254
 11
1169.6895
 21
2096.3756
  0
LINE
  8
1-2
  6
CONTINUOUS
 62
    3
 10
1169.6895
 20
2096.3756
 11
1170.4751
 21
2095.6068
  0
LINE
  8
1-2
  6
CONTINUOUS
 62
    3
 10
1170.4751
 20
2095.6068
 11
1171.2607
 21
2094.9409
  0
LINE
  8
1-2
  6
CONTINUOUS
 62
    3
 10
1171.2607
 20
2094.9409
 11
1172.0431
 21
2094.3713
  0
LINE
  8
1-2
  6
CONTINUOUS
 62
    3
 10
1172.0431
 20
2094.3713
 11
1172.8192
 21
2093.8908
  0
LINE
  8
1-2
  6
CONTINUOUS
 62
    3
 10
1172.8192
 20
2093.8908
 11
1173.5857
 21
2093.4924
  0
LINE
  8
1-2
  6
CONTINUOUS
 62
    3
 10
1173.5857
 20
2093.4924
 11
1174.3398
 21
2093.1692
  0
LINE
  8
1-2
  6
CONTINUOUS
 62
    3
 10
1174.3398
 20
2093.1692
 11
1175.0784
 21
2092.9146
  0
LINE
  8
1-2
  6
CONTINUOUS
 62
    3
 10
1175.0784
 20
2092.9146
 11
1175.7984
 21
2092.7216
  0
LINE
  8
1-2
  6
CONTINUOUS
 62
    3
 10
1175.7984
 20
2092.7216
 11
1176.4966
 21
2092.583
  0
LINE
  8
1-2
  6
CONTINUOUS
 62
    3
 10
1176.4966
 20
2092.583
 11
1177.1705
 21
2092.4925
  0
LINE
  8
1-2
  6
CONTINUOUS
 62
    3
 10
1177.1705
 20
2092.4925
 11
1177.8163
 21
2092.443
  0
LINE
  8
1-2
  6
CONTINUOUS
 62
    3
 10
1183.314
 20
2099.3676
 11
1183.2909
 21
2098.5629
  0
LINE
  8
1-2
  6
CONTINUOUS
 62
    3
 10
1183.2909
 20
2098.5629
 11
1183.2212
 21
2097.8189
  0
LINE
  8
1-2
  6
CONTINUOUS
 62
    3
 10
1183.2212
 20
2097.8189
 11
1183.1028
 21
2097.1335
  0
LINE
  8
1-2
  6
CONTINUOUS
 62
    3
 10
1183.1028
 20
2097.1335
 11
1182.9325
 21
2096.5018
  0
LINE
  8
1-2
  6
CONTINUOUS
 62
    3
 10
1182.9325
 20
2096.5018
 11
1182.7082
 21
2095.9215
  0
LINE
  8
1-2
  6
CONTINUOUS
 62
    3
 10
1182.7082
 20
2095.9215
 11
1182.4267
 21
2095.389
  0
LINE
  8
1-2
  6
CONTINUOUS
 62
    3
 10
1182.4267
 20
2095.389
 11
1182.0859
 21
2094.9008
  0
LINE
  8
1-2
  6
CONTINUOUS
 62
    3
 10
1182.0859
 20
2094.9008
 11
1181.6829
 21
2094.4534
  0
LINE
  8
1-2
  6
CONTINUOUS
 62
    3
 10
1181.6829
 20
2094.4534
 11
1181.2152
 21
2094.0439
  0
LINE
  8
1-2
  6
CONTINUOUS
 62
    3
 10
1181.2152
 20
2094.0439
 11
1180.6804
 21
2093.6686
  0
LINE
  8
1-2
  6
CONTINUOUS
 62
    3
 10
1180.6804
 20
2093.6686
 11
1180.0757
 21
2093.3241
  0
LINE
  8
1-2
  6
CONTINUOUS
 62
    3
 10
1180.0757
 20
2093.3241
 11
1179.3987
 21
2093.0072
  0
LINE
  8
1-2
  6
CONTINUOUS
 62
    3
 10
1179.3987
 20
2093.0072
 11
1178.6461
 21
2092.7142
  0
LINE
  8
1-2
  6
CONTINUOUS
 62
    3
 10
1178.6461
 20
2092.7142
 11
1177.8163
 21
2092.443
  0
LINE
  8
1-2
  6
CONTINUOUS
 62
    3
 10
1229.096
 20
2099.3676
 11
1228.7039
 21
2098.4226
  0
LINE
  8
1-2
  6
CONTINUOUS
 62
    3
 10
1228.7039
 20
2098.4226
 11
1228.2961
 21
2097.565
  0
LINE
  8
1-2
  6
CONTINUOUS
 62
    3
 10
1228.2961
 20
2097.565
 11
1227.8721
 21
2096.7913
  0
LINE
  8
1-2
  6
CONTINUOUS
 62
    3
 10
1227.8721
 20
2096.7913
 11
1227.4326
 21
2096.0967
  0
LINE
  8
1-2
  6
CONTINUOUS
 62
    3
 10
1227.4326
 20
2096.0967
 11
1226.9783
 21
2095.4778
  0
LINE
  8
1-2
  6
CONTINUOUS
 62
    3
 10
1226.9783
 20
2095.4778
 11
1226.5091
 21
2094.9298
  0
LINE
  8
1-2
  6
CONTINUOUS
 62
    3
 10
1226.5091
 20
2094.9298
 11
1226.0259
 21
2094.448
  0
LINE
  8
1-2
  6
CONTINUOUS
 62
    3
 10
1226.0259
 20
2094.448
 11
1225.5285
 21
2094.0291
  0
LINE
  8
1-2
  6
CONTINUOUS
 62
    3
 10
1225.5285
 20
2094.0291
 11
1225.0182
 21
2093.6678
  0
LINE
  8
1-2
  6
CONTINUOUS
 62
    3
 10
1225.0182
 20
2093.6678
 11
1224.4946
 21
2093.3612
  0
LINE
  8
1-2
  6
CONTINUOUS
 62
    3
 10
1224.4946
 20
2093.3612
 11
1223.9585
 21
2093.1044
  0
LINE
  8
1-2
  6
CONTINUOUS
 62
    3
 10
1223.9585
 20
2093.1044
 11
1223.4098
 21
2092.8933
  0
LINE
  8
1-2
  6
CONTINUOUS
 62
    3
 10
1223.4098
 20
2092.8933
 11
1222.8495
 21
2092.7233
  0
LINE
  8
1-2
  6
CONTINUOUS
 62
    3
 10
1222.8495
 20
2092.7233
 11
1222.2779
 21
2092.5905
  0
LINE
  8
1-2
  6
CONTINUOUS
 62
    3
 10
1221.0209
 20
2092.5905
 11
1220.4251
 21
2092.7036
  0
LINE
  8
1-2
  6
CONTINUOUS
 62
    3
 10
1220.4251
 20
2092.7036
 11
1219.8337
 21
2092.8842
  0
LINE
  8
1-2
  6
CONTINUOUS
 62
    3
 10
1219.8337
 20
2092.8842
 11
1219.2472
 21
2093.1309
  0
LINE
  8
1-2
  6
CONTINUOUS
 62
    3
 10
1219.2472
 20
2093.1309
 11
1218.6653
 21
2093.4446
  0
LINE
  8
1-2
  6
CONTINUOUS
 62
    3
 10
1218.6653
 20
2093.4446
 11
1218.0886
 21
2093.8252
  0
LINE
  8
1-2
  6
CONTINUOUS
 62
    3
 10
1218.0886
 20
2093.8252
 11
1217.5164
 21
2094.2723
  0
LINE
  8
1-2
  6
CONTINUOUS
 62
    3
 10
1217.5164
 20
2094.2723
 11
1216.9493
 21
2094.787
  0
LINE
  8
1-2
  6
CONTINUOUS
 62
    3
 10
1216.9493
 20
2094.787
 11
1216.3868
 21
2095.3685
  0
LINE
  8
1-2
  6
CONTINUOUS
 62
    3
 10
1216.3868
 20
2095.3685
 11
1215.8295
 21
2096.016
  0
LINE
  8
1-2
  6
CONTINUOUS
 62
    3
 10
1271.0009
 20
2099.3676
 11
1270.8877
 21
2098.6471
  0
LINE
  8
1-2
  6
CONTINUOUS
 62
    3
 10
1270.8877
 20
2098.6471
 11
1270.7266
 21
2097.9765
  0
LINE
  8
1-2
  6
CONTINUOUS
 62
    3
 10
1270.7266
 20
2097.9765
 11
1270.5221
 21
2097.3534
  0
LINE
  8
1-2
  6
CONTINUOUS
 62
    3
 10
1270.5221
 20
2097.3534
 11
1270.2774
 21
2096.7764
  0
LINE
  8
1-2
  6
CONTINUOUS
 62
    3
 10
1270.2774
 20
2096.7764
 11
1269.9963
 21
2096.2427
  0
LINE
  8
1-2
  6
CONTINUOUS
 62
    3
 10
1269.9963
 20
2096.2427
 11
1269.6817
 21
2095.7513
  0
LINE
  8
1-2
  6
CONTINUOUS
 62
    3
 10
1269.6817
 20
2095.7513
 11
1269.3372
 21
2095.2999
  0
LINE
  8
1-2
  6
CONTINUOUS
 62
    3
 10
1269.3372
 20
2095.2999
 11
1268.9659
 21
2094.8877
  0
LINE
  8
1-2
  6
CONTINUOUS
 62
    3
 10
1268.9659
 20
2094.8877
 11
1268.5702
 21
2094.5123
  0
LINE
  8
1-2
  6
CONTINUOUS
 62
    3
 10
1268.5702
 20
2094.5123
 11
1268.1529
 21
2094.1733
  0
LINE
  8
1-2
  6
CONTINUOUS
 62
    3
 10
1268.1529
 20
2094.1733
 11
1267.7164
 21
2093.8695
  0
LINE
  8
1-2
  6
CONTINUOUS
 62
    3
 10
1267.7164
 20
2093.8695
 11
1267.2629
 21
2093.5993
  0
LINE
  8
1-2
  6
CONTINUOUS
 62
    3
 10
1267.2629
 20
2093.5993
 11
1266.7944
 21
2093.3617
  0
LINE
  8
1-2
  6
CONTINUOUS
 62
    3
 10
1266.7944
 20
2093.3617
 11
1266.3128
 21
2093.1564
  0
LINE
  8
1-2
  6
CONTINUOUS
 62
    3
 10
1266.3128
 20
2093.1564
 11
1265.8195
 21
2092.9824
  0
LINE
  8
1-2
  6
CONTINUOUS
 62
    3
 10
1265.8195
 20
2092.9824
 11
1265.3163
 21
2092.8389
  0
LINE
  8
1-2
  6
CONTINUOUS
 62
    3
 10
1265.3163
 20
2092.8389
 11
1264.8046
 21
2092.7263
  0
LINE
  8
1-2
  6
CONTINUOUS
 62
    3
 10
1264.8046
 20
2092.7263
 11
1264.285
 21
2092.6437
  0
LINE
  8
1-2
  6
CONTINUOUS
 62
    3
 10
1264.285
 20
2092.6437
 11
1263.7589
 21
2092.5905
  0
LINE
  8
1-2
  6
CONTINUOUS
 62
    3
 10
1263.6262
 20
2092.5967
 11
1263.3299
 21
2092.6261
  0
LINE
  8
1-2
  6
CONTINUOUS
 62
    3
 10
1263.3299
 20
2092.6261
 11
1263.0386
 21
2092.6682
  0
LINE
  8
1-2
  6
CONTINUOUS
 62
    3
 10
1263.0386
 20
2092.6682
 11
1262.7525
 21
2092.7233
  0
LINE
  8
1-2
  6
CONTINUOUS
 62
    3
 10
1262.7525
 20
2092.7233
 11
1262.4716
 21
2092.7909
  0
LINE
  8
1-2
  6
CONTINUOUS
 62
    3
 10
1262.4716
 20
2092.7909
 11
1262.1957
 21
2092.8711
  0
LINE
  8
1-2
  6
CONTINUOUS
 62
    3
 10
1262.1957
 20
2092.8711
 11
1261.925
 21
2092.9641
  0
LINE
  8
1-2
  6
CONTINUOUS
 62
    3
 10
1261.925
 20
2092.9641
 11
1261.6594
 21
2093.0703
  0
LINE
  8
1-2
  6
CONTINUOUS
 62
    3
 10
1261.6594
 20
2093.0703
 11
1261.399
 21
2093.189
  0
LINE
  8
1-2
  6
CONTINUOUS
 62
    3
 10
1261.399
 20
2093.189
 11
1261.1433
 21
2093.3204
  0
LINE
  8
1-2
  6
CONTINUOUS
 62
    3
 10
1383.3657
 20
2099.3676
 11
1383.2642
 21
2098.6099
  0
LINE
  8
1-2
  6
CONTINUOUS
 62
    3
 10
1383.2642
 20
2098.6099
 11
1383.1566
 21
2097.9171
  0
LINE
  8
1-2
  6
CONTINUOUS
 62
    3
 10
1383.1566
 20
2097.9171
 11
1383.0438
 21
2097.2903
  0
LINE
  8
1-2
  6
CONTINUOUS
 62
    3
 10
1383.0438
 20
2097.2903
 11
1382.9245
 21
2096.7282
  0
LINE
  8
1-2
  6
CONTINUOUS
 62
    3
 10
1382.9245
 20
2096.7282
 11
1382.7995
 21
2096.232
  0
LINE
  8
1-2
  6
CONTINUOUS
 62
    3
 10
1382.7995
 20
2096.232
 11
1382.6686
 21
2095.801
  0
LINE
  8
1-2
  6
CONTINUOUS
 62
    3
 10
1382.6686
 20
2095.801
 11
1382.5318
 21
2095.4353
  0
LINE
  8
1-2
  6
CONTINUOUS
 62
    3
 10
1382.5318
 20
2095.4353
 11
1382.3893
 21
2095.1354
  0
LINE
  8
1-2
  6
CONTINUOUS
 62
    3
 10
1382.3893
 20
2095.1354
 11
1382.2408
 21
2094.9008
  0
LINE
  8
1-2
  6
CONTINUOUS
 62
    3
 10
1364.9192
 20
2099.3676
 11
1364.8631
 21
2098.7676
  0
LINE
  8
1-2
  6
CONTINUOUS
 62
    3
 10
1364.8631
 20
2098.7676
 11
1364.7703
 21
2098.1999
  0
LINE
  8
1-2
  6
CONTINUOUS
 62
    3
 10
1364.7703
 20
2098.1999
 11
1364.6449
 21
2097.6652
  0
LINE
  8
1-2
  6
CONTINUOUS
 62
    3
 10
1364.6449
 20
2097.6652
 11
1364.4907
 21
2097.1632
  0
LINE
  8
1-2
  6
CONTINUOUS
 62
    3
 10
1364.4907
 20
2097.1632
 11
1364.3105
 21
2096.6943
  0
LINE
  8
1-2
  6
CONTINUOUS
 62
    3
 10
1364.3105
 20
2096.6943
 11
1364.1085
 21
2096.2593
  0
LINE
  8
1-2
  6
CONTINUOUS
 62
    3
 10
1364.1085
 20
2096.2593
 11
1363.8882
 21
2095.8567
  0
LINE
  8
1-2
  6
CONTINUOUS
 62
    3
 10
1363.8882
 20
2095.8567
 11
1363.6531
 21
2095.4885
  0
LINE
  8
1-2
  6
CONTINUOUS
 62
    3
 10
1363.6531
 20
2095.4885
 11
1363.4069
 21
2095.1532
  0
LINE
  8
1-2
  6
CONTINUOUS
 62
    3
 10
1363.4069
 20
2095.1532
 11
1363.1533
 21
2094.8526
  0
LINE
  8
1-2
  6
CONTINUOUS
 62
    3
 10
1363.1533
 20
2094.8526
 11
1362.8953
 21
2094.5861
  0
LINE
  8
1-2
  6
CONTINUOUS
 62
    3
 10
1362.8953
 20
2094.5861
 11
1362.6374
 21
2094.3535
  0
LINE
  8
1-2
  6
CONTINUOUS
 62
    3
 10
1362.6374
 20
2094.3535
 11
1362.3825
 21
2094.1555
  0
LINE
  8
1-2
  6
CONTINUOUS
 62
    3
 10
1362.3825
 20
2094.1555
 11
1362.1345
 21
2093.9922
  0
LINE
  8
1-2
  6
CONTINUOUS
 62
    3
 10
1339.6558
 20
2099.3676
 11
1339.4883
 21
2098.6995
  0
LINE
  8
1-2
  6
CONTINUOUS
 62
    3
 10
1339.4883
 20
2098.6995
 11
1339.2844
 21
2098.0742
  0
LINE
  8
1-2
  6
CONTINUOUS
 62
    3
 10
1339.2844
 20
2098.0742
 11
1339.0454
 21
2097.4908
  0
LINE
  8
1-2
  6
CONTINUOUS
 62
    3
 10
1339.0454
 20
2097.4908
 11
1338.7731
 21
2096.9496
  0
LINE
  8
1-2
  6
CONTINUOUS
 62
    3
 10
1338.7731
 20
2096.9496
 11
1338.4687
 21
2096.4493
  0
LINE
  8
1-2
  6
CONTINUOUS
 62
    3
 10
1338.4687
 20
2096.4493
 11
1338.1338
 21
2095.9903
  0
LINE
  8
1-2
  6
CONTINUOUS
 62
    3
 10
1338.1338
 20
2095.9903
 11
1337.7701
 21
2095.5731
  0
LINE
  8
1-2
  6
CONTINUOUS
 62
    3
 10
1337.7701
 20
2095.5731
 11
1337.3782
 21
2095.1953
  0
LINE
  8
1-2
  6
CONTINUOUS
 62
    3
 10
1337.3782
 20
2095.1953
 11
1336.9607
 21
2094.8588
  0
LINE
  8
1-2
  6
CONTINUOUS
 62
    3
 10
1336.9607
 20
2094.8588
 11
1336.5183
 21
2094.5611
  0
LINE
  8
1-2
  6
CONTINUOUS
 62
    3
 10
1336.5183
 20
2094.5611
 11
1336.0526
 21
2094.3037
  0
LINE
  8
1-2
  6
CONTINUOUS
 62
    3
 10
1336.0526
 20
2094.3037
 11
1335.5651
 21
2094.085
  0
LINE
  8
1-2
  6
CONTINUOUS
 62
    3
 10
1335.5651
 20
2094.085
 11
1335.0573
 21
2093.9061
  0
LINE
  8
1-2
  6
CONTINUOUS
 62
    3
 10
1335.0573
 20
2093.9061
 11
1334.5308
 21
2093.7651
  0
LINE
  8
1-2
  6
CONTINUOUS
 62
    3
 10
1308.1364
 20
2099.3676
 11
1307.883
 21
2098.6676
  0
LINE
  8
1-2
  6
CONTINUOUS
 62
    3
 10
1307.883
 20
2098.6676
 11
1307.5864
 21
2098.0186
  0
LINE
  8
1-2
  6
CONTINUOUS
 62
    3
 10
1307.5864
 20
2098.0186
 11
1307.2498
 21
2097.421
  0
LINE
  8
1-2
  6
CONTINUOUS
 62
    3
 10
1307.2498
 20
2097.421
 11
1306.8769
 21
2096.8746
  0
LINE
  8
1-2
  6
CONTINUOUS
 62
    3
 10
1306.8769
 20
2096.8746
 11
1306.4716
 21
2096.38
  0
LINE
  8
1-2
  6
CONTINUOUS
 62
    3
 10
1306.4716
 20
2096.38
 11
1306.0375
 21
2095.9368
  0
LINE
  8
1-2
  6
CONTINUOUS
 62
    3
 10
1306.0375
 20
2095.9368
 11
1305.5784
 21
2095.5442
  0
LINE
  8
1-2
  6
CONTINUOUS
 62
    3
 10
1305.5784
 20
2095.5442
 11
1305.0981
 21
2095.2022
  0
LINE
  8
1-2
  6
CONTINUOUS
 62
    3
 10
1305.0981
 20
2095.2022
 11
1304.601
 21
2094.91
  0
LINE
  8
1-2
  6
CONTINUOUS
 62
    3
 10
1304.601
 20
2094.91
 11
1304.091
 21
2094.667
  0
LINE
  8
1-2
  6
CONTINUOUS
 62
    3
 10
1304.091
 20
2094.667
 11
1303.5726
 21
2094.472
  0
LINE
  8
1-2
  6
CONTINUOUS
 62
    3
 10
1303.5726
 20
2094.472
 11
1303.0497
 21
2094.3225
  0
LINE
  8
1-2
  6
CONTINUOUS
 62
    3
 10
1303.0497
 20
2094.3225
 11
1302.5272
 21
2094.2196
  0
LINE
  8
1-2
  6
CONTINUOUS
 62
    3
 10
1302.5272
 20
2094.2196
 11
1302.0097
 21
2094.1602
  0
LINE
  8
1-2
  6
CONTINUOUS
 62
    3
 10
1302.0097
 20
2094.1602
 11
1301.5012
 21
2094.1419
  0
LINE
  8
1-2
  6
CONTINUOUS
 62
    3
 10
1301.5012
 20
2094.1419
 11
1301.0067
 21
2094.1642
  0
LINE
  8
1-2
  6
CONTINUOUS
 62
    3
 10
1301.0067
 20
2094.1642
 11
1300.5314
 21
2094.2236
  0
LINE
  8
1-2
  6
CONTINUOUS
 62
    3
 10
1300.5314
 20
2094.2236
 11
1300.0798
 21
2094.3186
  0
LINE
  8
1-2
  6
CONTINUOUS
 62
    3
 10
1300.0798
 20
2094.3186
 11
1299.6571
 21
2094.4463
  0
LINE
  8
1-2
  6
CONTINUOUS
 62
    3
 10
1383.3657
 20
2099.3676
 11
1391.667
 21
2099.3676
  0
LINE
  8
1-2
  6
CONTINUOUS
 62
    3
 10
1464.6744
 20
2016.0343
 11
1383.3657
 21
2099.3676
  0
LINE
  8
1-2
  6
CONTINUOUS
 62
    3
 10
1378.0019
 20
2099.3676
 11
1458.0022
 21
2016.0343
  0
LINE
  8
1-2
  6
CONTINUOUS
 62
    3
 10
1441.7288
 20
2016.0343
 11
1364.9192
 21
2099.3676
  0
LINE
  8
1-2
  6
CONTINUOUS
 62
    3
 10
1364.9192
 20
2099.3676
 11
1378.0019
 21
2099.3676
  0
LINE
  8
1-2
  6
CONTINUOUS
 62
    3
 10
1357.2314
 20
2099.3676
 11
1432.1658
 21
2016.0343
  0
LINE
  8
1-2
  6
CONTINUOUS
 62
    3
 10
1339.6558
 20
2099.3676
 11
1357.2314
 21
2099.3676
  0
LINE
  8
1-2
  6
CONTINUOUS
 62
    3
 10
1410.3035
 20
2016.0343
 11
1339.6558
 21
2099.3676
  0
LINE
  8
1-2
  6
CONTINUOUS
 62
    3
 10
1329.8102
 20
2099.3676
 11
1398.0564
 21
2016.0343
  0
LINE
  8
1-2
  6
CONTINUOUS
 62
    3
 10
1308.1222
 20
2099.3676
 11
1329.8102
 21
2099.3676
  0
LINE
  8
1-2
  6
CONTINUOUS
 62
    3
 10
1371.0789
 20
2016.0343
 11
1308.1222
 21
2099.3676
  0
LINE
  8
1-2
  6
CONTINUOUS
 62
    3
 10
1296.3322
 20
2099.3676
 11
1356.413
 21
2016.0343
  0
LINE
  8
1-2
  6
CONTINUOUS
 62
    3
 10
1271.0009
 20
2099.3676
 11
1296.3322
 21
2099.3676
  0
LINE
  8
1-2
  6
CONTINUOUS
 62
    3
 10
1324.9036
 20
2016.0343
 11
1271.0009
 21
2099.3676
  0
LINE
  8
1-2
  6
CONTINUOUS
 62
    3
 10
1257.5212
 20
2099.3676
 11
1308.1364
 21
2016.0343
  0
LINE
  8
1-2
  6
CONTINUOUS
 62
    3
 10
1229.096
 20
2099.3676
 11
1257.5212
 21
2099.3676
  0
LINE
  8
1-2
  6
CONTINUOUS
 62
    3
 10
1272.7779
 20
2016.0343
 11
1229.096
 21
2099.3676
  0
LINE
  8
1-2
  6
CONTINUOUS
 62
    3
 10
1214.2186
 20
2099.3676
 11
1254.2719
 21
2016.0343
  0
LINE
  8
1-2
  6
CONTINUOUS
 62
    3
 10
1183.314
 20
2099.3676
 11
1214.2186
 21
2099.3676
  0
LINE
  8
1-2
  6
CONTINUOUS
 62
    3
 10
1215.8295
 20
2016.0343
 11
1183.314
 21
2099.3676
  0
LINE
  8
1-2
  6
CONTINUOUS
 62
    3
 10
1195.9858
 20
2016.0343
 11
1167.361
 21
2099.3676
  0
LINE
  8
1-2
  6
CONTINUOUS
 62
    3
 10
1134.6458
 20
2099.3676
 11
1167.361
 21
2099.3676
  0
LINE
  8
1-2
  6
CONTINUOUS
 62
    3
 10
1134.6458
 20
2099.3676
 11
1155.2915
 21
2016.0343
  0
LINE
  8
1-2
  6
CONTINUOUS
 62
    3
 10
1134.5391
 20
2016.0343
 11
1117.9627
 21
2099.3676
  0
LINE
  8
1-2
  6
CONTINUOUS
 62
    3
 10
1084.1457
 20
2099.3676
 11
1117.9627
 21
2099.3676
  0
LINE
  8
1-2
  6
CONTINUOUS
 62
    3
 10
1084.1457
 20
2099.3676
 11
1092.4739
 21
2016.0343
  0
LINE
  8
1-2
  6
CONTINUOUS
 62
    3
 10
1067.0934
 20
2099.3676
 11
1071.2625
 21
2016.0343
  0
LINE
  8
1-2
  6
CONTINUOUS
 62
    3
 10
1050
 20
2099.3676
 11
1067.0934
 21
2099.3676
  0
LINE
  8
1-2
  6
CONTINUOUS
 62
    3
 10
1007.526
 20
1899.3677
 11
1007.526
 21
1666.0344
  0
LINE
  8
1-2
  6
CONTINUOUS
 62
    3
 10
965.46099
 20
1899.3677
 11
965.46099
 21
1666.0344
  0
LINE
  8
1-2
  6
CONTINUOUS
 62
    3
 10
884.17057
 20
1899.3677
 11
884.17057
 21
1666.0344
  0
LINE
  8
1-2
  6
CONTINUOUS
 62
    3
 10
845.72807
 20
1899.3677
 11
845.72807
 21
1666.0344
  0
LINE
  8
1-2
  6
CONTINUOUS
 62
    3
 10
775.09625
 20
1899.3677
 11
775.09625
 21
1666.0344
  0
LINE
  8
1-2
  6
CONTINUOUS
 62
    3
 10
743.58701
 20
1899.3677
 11
743.58701
 21
1666.0344
  0
LINE
  8
1-2
  6
CONTINUOUS
 62
    3
 10
689.69647
 20
1899.3677
 11
689.69647
 21
1666.0344
  0
LINE
  8
1-2
  6
CONTINUOUS
 62
    3
 10
965.46099
 20
1666.0344
 11
884.17057
 21
1686.2354
  0
LINE
  8
1-2
  6
CONTINUOUS
 62
    3
 10
743.58701
 20
1666.0344
 11
689.69647
 21
1686.2354
  0
LINE
  8
1-2
  6
CONTINUOUS
 62
    3
 10
789.35447
 20
1899.3677
 11
789.35447
 21
1666.0344
  0
LINE
  8
1-2
  6
CONTINUOUS
 62
    3
 10
806.02103
 20
1899.3677
 11
806.02103
 21
1666.0344
  0
LINE
  8
1-2
  6
CONTINUOUS
 62
    3
 10
845.72807
 20
1666.0344
 11
806.02103
 21
1677.3906
  0
LINE
  8
1-2
  6
CONTINUOUS
 62
    3
 10
789.35447
 20
1682.1576
 11
775.09637
 21
1686.2354
  0
LINE
  8
1-2
  6
CONTINUOUS
 62
    3
 10
624.99986
 20
1566.034
 11
624.99986
 21
1649.3686
  0
LINE
  8
1-2
  6
CONTINUOUS
 62
    3
 10
1092.4739
 20
1899.3677
 11
1092.4739
 21
1666.0344
  0
LINE
  8
1-2
  6
CONTINUOUS
 62
    3
 10
1134.5391
 20
1899.3677
 11
1134.5391
 21
1666.0344
  0
LINE
  8
1-2
  6
CONTINUOUS
 62
    3
 10
1215.8295
 20
1899.3677
 11
1215.8295
 21
1666.0344
  0
LINE
  8
1-2
  6
CONTINUOUS
 62
    3
 10
1254.2719
 20
1899.3677
 11
1254.2719
 21
1666.0344
  0
LINE
  8
1-2
  6
CONTINUOUS
 62
    3
 10
1324.9036
 20
1899.3677
 11
1324.9036
 21
1666.0344
  0
LINE
  8
1-2
  6
CONTINUOUS
 62
    3
 10
1356.413
 20
1899.3677
 11
1356.413
 21
1666.0344
  0
LINE
  8
1-2
  6
CONTINUOUS
 62
    3
 10
1410.3035
 20
1899.3677
 11
1410.3035
 21
1666.0344
  0
LINE
  8
1-2
  6
CONTINUOUS
 62
    3
 10
1310.6457
 20
1899.3677
 11
1310.6457
 21
1666.0344
  0
LINE
  8
1-2
  6
CONTINUOUS
 62
    3
 10
1293.979
 20
1899.3677
 11
1293.979
 21
1666.0344
  0
LINE
  8
1-2
  6
CONTINUOUS
 62
    3
 10
1134.5391
 20
1686.2354
 11
1215.8295
 21
1666.0344
  0
LINE
  8
1-2
  6
CONTINUOUS
 62
    3
 10
1092.4739
 20
1666.0344
 11
1007.526
 21
1686.2354
  0
LINE
  8
1-2
  6
CONTINUOUS
 62
    3
 10
624.99986
 20
1549.3672
 11
1475.0013
 21
1549.3672
  0
LINE
  8
1-2
  6
CONTINUOUS
 62
    3
 10
1475.0001
 20
1549.3672
 11
1391.667
 21
1466.0342
  0
LINE
  8
1-2
  6
CONTINUOUS
 62
    3
 10
624.99986
 20
1549.3672
 11
708.33302
 21
1466.0342
  0
LINE
  8
1-2
  6
CONTINUOUS
 62
    3
 10
975.96061
 20
1472.9219
 11
976.64651
 21
1472.7386
  0
LINE
  8
1-2
  6
CONTINUOUS
 62
    3
 10
976.64651
 20
1472.7386
 11
977.29084
 21
1472.4889
  0
LINE
  8
1-2
  6
CONTINUOUS
 62
    3
 10
977.29084
 20
1472.4889
 11
977.89398
 21
1472.1776
  0
LINE
  8
1-2
  6
CONTINUOUS
 62
    3
 10
977.89398
 20
1472.1776
 11
978.4569
 21
1471.8097
  0
LINE
  8
1-2
  6
CONTINUOUS
 62
    3
 10
978.4569
 20
1471.8097
 11
978.98024
 21
1471.3895
  0
LINE
  8
1-2
  6
CONTINUOUS
 62
    3
 10
978.98024
 20
1471.3895
 11
979.46485
 21
1470.9219
  0
LINE
  8
1-2
  6
CONTINUOUS
 62
    3
 10
979.46485
 20
1470.9219
 11
979.91148
 21
1470.4114
  0
LINE
  8
1-2
  6
CONTINUOUS
 62
    3
 10
979.91148
 20
1470.4114
 11
980.32099
 21
1469.8628
  0
LINE
  8
1-2
  6
CONTINUOUS
 62
    3
 10
980.32099
 20
1469.8628
 11
980.69376
 21
1469.2809
  0
LINE
  8
1-2
  6
CONTINUOUS
 62
    3
 10
980.69376
 20
1469.2809
 11
981.03102
 21
1468.6707
  0
LINE
  8
1-2
  6
CONTINUOUS
 62
    3
 10
981.03102
 20
1468.6707
 11
981.33314
 21
1468.0355
  0
LINE
  8
1-2
  6
CONTINUOUS
 62
    3
 10
981.33314
 20
1468.0355
 11
981.60112
 21
1467.3815
  0
LINE
  8
1-2
  6
CONTINUOUS
 62
    3
 10
981.60112
 20
1467.3815
 11
981.83557
 21
1466.7129
  0
LINE
  8
1-2
  6
CONTINUOUS
 62
    3
 10
981.83557
 20
1466.7129
 11
982.03736
 21
1466.0342
  0
LINE
  8
1-2
  6
CONTINUOUS
 62
    3
 10
972.19321
 20
1472.9591
 11
971.40004
 21
1472.7042
  0
LINE
  8
1-2
  6
CONTINUOUS
 62
    3
 10
971.40004
 20
1472.7042
 11
970.65587
 21
1472.4028
  0
LINE
  8
1-2
  6
CONTINUOUS
 62
    3
 10
970.65587
 20
1472.4028
 11
969.95994
 21
1472.0581
  0
LINE
  8
1-2
  6
CONTINUOUS
 62
    3
 10
969.95994
 20
1472.0581
 11
969.31215
 21
1471.6711
  0
LINE
  8
1-2
  6
CONTINUOUS
 62
    3
 10
969.31215
 20
1471.6711
 11
968.71173
 21
1471.2455
  0
LINE
  8
1-2
  6
CONTINUOUS
 62
    3
 10
968.71173
 20
1471.2455
 11
968.15809
 21
1470.7828
  0
LINE
  8
1-2
  6
CONTINUOUS
 62
    3
 10
968.15809
 20
1470.7828
 11
967.65096
 21
1470.2855
  0
LINE
  8
1-2
  6
CONTINUOUS
 62
    3
 10
967.65096
 20
1470.2855
 11
967.18961
 21
1469.7564
  0
LINE
  8
1-2
  6
CONTINUOUS
 62
    3
 10
967.18961
 20
1469.7564
 11
966.77341
 21
1469.1972
  0
LINE
  8
1-2
  6
CONTINUOUS
 62
    3
 10
966.77341
 20
1469.1972
 11
966.40213
 21
1468.6103
  0
LINE
  8
1-2
  6
CONTINUOUS
 62
    3
 10
966.40213
 20
1468.6103
 11
966.07501
 21
1467.9979
  0
LINE
  8
1-2
  6
CONTINUOUS
 62
    3
 10
966.07501
 20
1467.9979
 11
965.79169
 21
1467.3632
  0
LINE
  8
1-2
  6
CONTINUOUS
 62
    3
 10
965.79169
 20
1467.3632
 11
965.55155
 21
1466.708
  0
LINE
  8
1-2
  6
CONTINUOUS
 62
    3
 10
965.55155
 20
1466.708
 11
965.35397
 21
1466.0342
  0
LINE
  8
1-2
  6
CONTINUOUS
 62
    3
 10
932.63909
 20
1466.0342
 11
931.87079
 21
1467.1529
  0
LINE
  8
1-2
  6
CONTINUOUS
 62
    3
 10
931.87079
 20
1467.1529
 11
931.09358
 21
1468.1481
  0
LINE
  8
1-2
  6
CONTINUOUS
 62
    3
 10
931.09358
 20
1468.1481
 11
930.31055
 21
1469.0265
  0
LINE
  8
1-2
  6
CONTINUOUS
 62
    3
 10
930.31055
 20
1469.0265
 11
929.52469
 21
1469.7953
  0
LINE
  8
1-2
  6
CONTINUOUS
 62
    3
 10
929.52469
 20
1469.7953
 11
928.73919
 21
1470.4609
  0
LINE
  8
1-2
  6
CONTINUOUS
 62
    3
 10
928.73919
 20
1470.4609
 11
927.95691
 21
1471.0303
  0
LINE
  8
1-2
  6
CONTINUOUS
 62
    3
 10
927.95691
 20
1471.0303
 11
927.18094
 21
1471.5113
  0
LINE
  8
1-2
  6
CONTINUOUS
 62
    3
 10
927.18094
 20
1471.5113
 11
926.41437
 21
1471.9097
  0
LINE
  8
1-2
  6
CONTINUOUS
 62
    3
 10
926.41437
 20
1471.9097
 11
925.66029
 21
1472.2326
  0
LINE
  8
1-2
  6
CONTINUOUS
 62
    3
 10
925.66029
 20
1472.2326
 11
924.92169
 21
1472.4869
  0
LINE
  8
1-2
  6
CONTINUOUS
 62
    3
 10
924.92169
 20
1472.4869
 11
924.20164
 21
1472.6804
  0
LINE
  8
1-2
  6
CONTINUOUS
 62
    3
 10
924.20164
 20
1472.6804
 11
923.50336
 21
1472.8185
  0
LINE
  8
1-2
  6
CONTINUOUS
 62
    3
 10
923.50336
 20
1472.8185
 11
922.82958
 21
1472.9096
  0
LINE
  8
1-2
  6
CONTINUOUS
 62
    3
 10
922.82958
 20
1472.9096
 11
922.18364
 21
1472.9591
  0
LINE
  8
1-2
  6
CONTINUOUS
 62
    3
 10
916.68615
 20
1466.0342
 11
916.70916
 21
1466.8386
  0
LINE
  8
1-2
  6
CONTINUOUS
 62
    3
 10
916.70916
 20
1466.8386
 11
916.77869
 21
1467.5827
  0
LINE
  8
1-2
  6
CONTINUOUS
 62
    3
 10
916.77869
 20
1467.5827
 11
916.89709
 21
1468.2686
  0
LINE
  8
1-2
  6
CONTINUOUS
 62
    3
 10
916.89709
 20
1468.2686
 11
917.06733
 21
1468.8998
  0
LINE
  8
1-2
  6
CONTINUOUS
 62
    3
 10
917.06733
 20
1468.8998
 11
917.292
 21
1469.4801
  0
LINE
  8
1-2
  6
CONTINUOUS
 62
    3
 10
917.292
 20
1469.4801
 11
917.57334
 21
1470.013
  0
LINE
  8
1-2
  6
CONTINUOUS
 62
    3
 10
917.57334
 20
1470.013
 11
917.91419
 21
1470.5007
  0
LINE
  8
1-2
  6
CONTINUOUS
 62
    3
 10
917.91419
 20
1470.5007
 11
918.31715
 21
1470.9484
  0
LINE
  8
1-2
  6
CONTINUOUS
 62
    3
 10
918.31715
 20
1470.9484
 11
918.78468
 21
1471.3579
  0
LINE
  8
1-2
  6
CONTINUOUS
 62
    3
 10
918.78468
 20
1471.3579
 11
919.31952
 21
1471.733
  0
LINE
  8
1-2
  6
CONTINUOUS
 62
    3
 10
919.31952
 20
1471.733
 11
919.92439
 21
1472.0779
  0
LINE
  8
1-2
  6
CONTINUOUS
 62
    3
 10
919.92439
 20
1472.0779
 11
920.60151
 21
1472.3946
  0
LINE
  8
1-2
  6
CONTINUOUS
 62
    3
 10
920.60151
 20
1472.3946
 11
921.35385
 21
1472.6879
  0
LINE
  8
1-2
  6
CONTINUOUS
 62
    3
 10
921.35385
 20
1472.6879
 11
922.18364
 21
1472.9591
  0
LINE
  8
1-2
  6
CONTINUOUS
 62
    3
 10
870.90409
 20
1466.0342
 11
871.29591
 21
1466.9794
  0
LINE
  8
1-2
  6
CONTINUOUS
 62
    3
 10
871.29591
 20
1466.9794
 11
871.70393
 21
1467.8368
  0
LINE
  8
1-2
  6
CONTINUOUS
 62
    3
 10
871.70393
 20
1467.8368
 11
872.12792
 21
1468.6103
  0
LINE
  8
1-2
  6
CONTINUOUS
 62
    3
 10
872.12792
 20
1468.6103
 11
872.56738
 21
1469.3049
  0
LINE
  8
1-2
  6
CONTINUOUS
 62
    3
 10
872.56738
 20
1469.3049
 11
873.0218
 21
1469.924
  0
LINE
  8
1-2
  6
CONTINUOUS
 62
    3
 10
873.0218
 20
1469.924
 11
873.49095
 21
1470.4723
  0
LINE
  8
1-2
  6
CONTINUOUS
 62
    3
 10
873.49095
 20
1470.4723
 11
873.9742
 21
1470.9541
  0
LINE
  8
1-2
  6
CONTINUOUS
 62
    3
 10
873.9742
 20
1470.9541
 11
874.47143
 21
1471.373
  0
LINE
  8
1-2
  6
CONTINUOUS
 62
    3
 10
874.47143
 20
1471.373
 11
874.98189
 21
1471.734
  0
LINE
  8
1-2
  6
CONTINUOUS
 62
    3
 10
874.98189
 20
1471.734
 11
875.50548
 21
1472.0408
  0
LINE
  8
1-2
  6
CONTINUOUS
 62
    3
 10
875.50548
 20
1472.0408
 11
876.04168
 21
1472.2972
  0
LINE
  8
1-2
  6
CONTINUOUS
 62
    3
 10
876.04168
 20
1472.2972
 11
876.59025
 21
1472.5087
  0
LINE
  8
1-2
  6
CONTINUOUS
 62
    3
 10
876.59025
 20
1472.5087
 11
877.15033
 21
1472.6782
  0
LINE
  8
1-2
  6
CONTINUOUS
 62
    3
 10
877.15033
 20
1472.6782
 11
877.72204
 21
1472.8111
  0
LINE
  8
1-2
  6
CONTINUOUS
 62
    3
 10
878.97904
 20
1472.8111
 11
879.57512
 21
1472.698
  0
LINE
  8
1-2
  6
CONTINUOUS
 62
    3
 10
879.57512
 20
1472.698
 11
880.1665
 21
1472.5179
  0
LINE
  8
1-2
  6
CONTINUOUS
 62
    3
 10
880.1665
 20
1472.5179
 11
880.75293
 21
1472.2709
  0
LINE
  8
1-2
  6
CONTINUOUS
 62
    3
 10
880.75293
 20
1472.2709
 11
881.33479
 21
1471.9569
  0
LINE
  8
1-2
  6
CONTINUOUS
 62
    3
 10
881.33479
 20
1471.9569
 11
881.91145
 21
1471.5769
  0
LINE
  8
1-2
  6
CONTINUOUS
 62
    3
 10
881.91145
 20
1471.5769
 11
882.48353
 21
1471.1292
  0
LINE
  8
1-2
  6
CONTINUOUS
 62
    3
 10
882.48353
 20
1471.1292
 11
883.05066
 21
1470.6146
  0
LINE
  8
1-2
  6
CONTINUOUS
 62
    3
 10
883.05066
 20
1470.6146
 11
883.61309
 21
1470.0336
  0
LINE
  8
1-2
  6
CONTINUOUS
 62
    3
 10
883.61309
 20
1470.0336
 11
884.17057
 21
1469.3858
  0
LINE
  8
1-2
  6
CONTINUOUS
 62
    3
 10
828.99891
 20
1466.0342
 11
829.11236
 21
1466.7545
  0
LINE
  8
1-2
  6
CONTINUOUS
 62
    3
 10
829.11236
 20
1466.7545
 11
829.2732
 21
1467.4251
  0
LINE
  8
1-2
  6
CONTINUOUS
 62
    3
 10
829.2732
 20
1467.4251
 11
829.47796
 21
1468.0484
  0
LINE
  8
1-2
  6
CONTINUOUS
 62
    3
 10
829.47796
 20
1468.0484
 11
829.72267
 21
1468.6256
  0
LINE
  8
1-2
  6
CONTINUOUS
 62
    3
 10
829.72267
 20
1468.6256
 11
830.00389
 21
1469.1589
  0
LINE
  8
1-2
  6
CONTINUOUS
 62
    3
 10
830.00389
 20
1469.1589
 11
830.31826
 21
1469.6505
  0
LINE
  8
1-2
  6
CONTINUOUS
 62
    3
 10
830.31826
 20
1469.6505
 11
830.66257
 21
1470.1021
  0
LINE
  8
1-2
  6
CONTINUOUS
 62
    3
 10
830.66257
 20
1470.1021
 11
831.03398
 21
1470.5141
  0
LINE
  8
1-2
  6
CONTINUOUS
 62
    3
 10
831.03398
 20
1470.5141
 11
831.42976
 21
1470.8892
  0
LINE
  8
1-2
  6
CONTINUOUS
 62
    3
 10
831.42976
 20
1470.8892
 11
831.84694
 21
1471.2282
  0
LINE
  8
1-2
  6
CONTINUOUS
 62
    3
 10
831.84694
 20
1471.2282
 11
832.28355
 21
1471.5323
  0
LINE
  8
1-2
  6
CONTINUOUS
 62
    3
 10
832.28355
 20
1471.5323
 11
832.73711
 21
1471.8028
  0
LINE
  8
1-2
  6
CONTINUOUS
 62
    3
 10
832.73711
 20
1471.8028
 11
833.20564
 21
1472.0403
  0
LINE
  8
1-2
  6
CONTINUOUS
 62
    3
 10
833.20564
 20
1472.0403
 11
833.68728
 21
1472.2457
  0
LINE
  8
1-2
  6
CONTINUOUS
 62
    3
 10
833.68728
 20
1472.2457
 11
834.18043
 21
1472.4194
  0
LINE
  8
1-2
  6
CONTINUOUS
 62
    3
 10
834.18043
 20
1472.4194
 11
834.68372
 21
1472.5629
  0
LINE
  8
1-2
  6
CONTINUOUS
 62
    3
 10
834.68372
 20
1472.5629
 11
835.19542
 21
1472.6755
  0
LINE
  8
1-2
  6
CONTINUOUS
 62
    3
 10
835.19542
 20
1472.6755
 11
835.71492
 21
1472.7584
  0
LINE
  8
1-2
  6
CONTINUOUS
 62
    3
 10
835.71492
 20
1472.7584
 11
836.2411
 21
1472.8111
  0
LINE
  8
1-2
  6
CONTINUOUS
 62
    3
 10
836.37386
 20
1472.8054
 11
836.67017
 21
1472.7757
  0
LINE
  8
1-2
  6
CONTINUOUS
 62
    3
 10
836.67017
 20
1472.7757
 11
836.9614
 21
1472.7336
  0
LINE
  8
1-2
  6
CONTINUOUS
 62
    3
 10
836.9614
 20
1472.7336
 11
837.24732
 21
1472.6787
  0
LINE
  8
1-2
  6
CONTINUOUS
 62
    3
 10
837.24732
 20
1472.6787
 11
837.52829
 21
1472.6112
  0
LINE
  8
1-2
  6
CONTINUOUS
 62
    3
 10
837.52829
 20
1472.6112
 11
837.80418
 21
1472.5307
  0
LINE
  8
1-2
  6
CONTINUOUS
 62
    3
 10
837.80418
 20
1472.5307
 11
838.07501
 21
1472.4375
  0
LINE
  8
1-2
  6
CONTINUOUS
 62
    3
 10
838.07501
 20
1472.4375
 11
838.34063
 21
1472.3316
  0
LINE
  8
1-2
  6
CONTINUOUS
 62
    3
 10
838.34063
 20
1472.3316
 11
838.60119
 21
1472.2128
  0
LINE
  8
1-2
  6
CONTINUOUS
 62
    3
 10
838.60119
 20
1472.2128
 11
838.85654
 21
1472.0811
  0
LINE
  8
1-2
  6
CONTINUOUS
 62
    3
 10
716.6345
 20
1466.0342
 11
716.73595
 21
1466.7921
  0
LINE
  8
1-2
  6
CONTINUOUS
 62
    3
 10
716.73595
 20
1466.7921
 11
716.8431
 21
1467.4845
  0
LINE
  8
1-2
  6
CONTINUOUS
 62
    3
 10
716.8431
 20
1467.4845
 11
716.95642
 21
1468.1117
  0
LINE
  8
1-2
  6
CONTINUOUS
 62
    3
 10
716.95642
 20
1468.1117
 11
717.07556
 21
1468.6734
  0
LINE
  8
1-2
  6
CONTINUOUS
 62
    3
 10
717.07556
 20
1468.6734
 11
717.20052
 21
1469.17
  0
LINE
  8
1-2
  6
CONTINUOUS
 62
    3
 10
717.20052
 20
1469.17
 11
717.33142
 21
1469.6011
  0
LINE
  8
1-2
  6
CONTINUOUS
 62
    3
 10
717.33142
 20
1469.6011
 11
717.46813
 21
1469.9663
  0
LINE
  8
1-2
  6
CONTINUOUS
 62
    3
 10
717.46813
 20
1469.9663
 11
717.61078
 21
1470.2667
  0
LINE
  8
1-2
  6
CONTINUOUS
 62
    3
 10
717.61078
 20
1470.2667
 11
717.75924
 21
1470.5007
  0
LINE
  8
1-2
  6
CONTINUOUS
 62
    3
 10
735.08077
 20
1466.0342
 11
735.13694
 21
1466.6345
  0
LINE
  8
1-2
  6
CONTINUOUS
 62
    3
 10
735.13694
 20
1466.6345
 11
735.22973
 21
1467.2021
  0
LINE
  8
1-2
  6
CONTINUOUS
 62
    3
 10
735.22973
 20
1467.2021
 11
735.35494
 21
1467.7366
  0
LINE
  8
1-2
  6
CONTINUOUS
 62
    3
 10
735.35494
 20
1467.7366
 11
735.50934
 21
1468.2389
  0
LINE
  8
1-2
  6
CONTINUOUS
 62
    3
 10
735.50934
 20
1468.2389
 11
735.68935
 21
1468.7078
  0
LINE
  8
1-2
  6
CONTINUOUS
 62
    3
 10
735.68935
 20
1468.7078
 11
735.89151
 21
1469.1428
  0
LINE
  8
1-2
  6
CONTINUOUS
 62
    3
 10
735.89151
 20
1469.1428
 11
736.11185
 21
1469.5449
  0
LINE
  8
1-2
  6
CONTINUOUS
 62
    3
 10
736.11185
 20
1469.5449
 11
736.34692
 21
1469.9131
  0
LINE
  8
1-2
  6
CONTINUOUS
 62
    3
 10
736.34692
 20
1469.9131
 11
736.59312
 21
1470.2484
  0
LINE
  8
1-2
  6
CONTINUOUS
 62
    3
 10
736.59312
 20
1470.2484
 11
736.84687
 21
1470.549
  0
LINE
  8
1-2
  6
CONTINUOUS
 62
    3
 10
736.84687
 20
1470.549
 11
737.10458
 21
1470.816
  0
LINE
  8
1-2
  6
CONTINUOUS
 62
    3
 10
737.10458
 20
1470.816
 11
737.36266
 21
1471.0486
  0
LINE
  8
1-2
  6
CONTINUOUS
 62
    3
 10
737.36266
 20
1471.0486
 11
737.61753
 21
1471.2465
  0
LINE
  8
1-2
  6
CONTINUOUS
 62
    3
 10
737.61753
 20
1471.2465
 11
737.86558
 21
1471.4098
  0
LINE
  8
1-2
  6
CONTINUOUS
 62
    3
 10
760.34426
 20
1466.0342
 11
760.51177
 21
1466.7023
  0
LINE
  8
1-2
  6
CONTINUOUS
 62
    3
 10
760.51177
 20
1466.7023
 11
760.71579
 21
1467.3273
  0
LINE
  8
1-2
  6
CONTINUOUS
 62
    3
 10
760.71579
 20
1467.3273
 11
760.95469
 21
1467.911
  0
LINE
  8
1-2
  6
CONTINUOUS
 62
    3
 10
760.95469
 20
1467.911
 11
761.227
 21
1468.4524
  0
LINE
  8
1-2
  6
CONTINUOUS
 62
    3
 10
761.227
 20
1468.4524
 11
761.53135
 21
1468.9528
  0
LINE
  8
1-2
  6
CONTINUOUS
 62
    3
 10
761.53135
 20
1468.9528
 11
761.86613
 21
1469.4113
  0
LINE
  8
1-2
  6
CONTINUOUS
 62
    3
 10
761.86613
 20
1469.4113
 11
762.23012
 21
1469.8289
  0
LINE
  8
1-2
  6
CONTINUOUS
 62
    3
 10
762.23012
 20
1469.8289
 11
762.62169
 21
1470.2063
  0
LINE
  8
1-2
  6
CONTINUOUS
 62
    3
 10
762.62169
 20
1470.2063
 11
763.03937
 21
1470.5433
  0
LINE
  8
1-2
  6
CONTINUOUS
 62
    3
 10
763.03937
 20
1470.5433
 11
763.48179
 21
1470.8407
  0
LINE
  8
1-2
  6
CONTINUOUS
 62
    3
 10
763.48179
 20
1470.8407
 11
763.94747
 21
1471.0981
  0
LINE
  8
1-2
  6
CONTINUOUS
 62
    3
 10
763.94747
 20
1471.0981
 11
764.43493
 21
1471.3166
  0
LINE
  8
1-2
  6
CONTINUOUS
 62
    3
 10
764.43493
 20
1471.3166
 11
764.94255
 21
1471.4959
  0
LINE
  8
1-2
  6
CONTINUOUS
 62
    3
 10
764.94255
 20
1471.4959
 11
765.46923
 21
1471.637
  0
LINE
  8
1-2
  6
CONTINUOUS
 62
    3
 10
791.86364
 20
1466.0342
 11
792.11701
 21
1466.7345
  0
LINE
  8
1-2
  6
CONTINUOUS
 62
    3
 10
792.11701
 20
1466.7345
 11
792.4137
 21
1467.383
  0
LINE
  8
1-2
  6
CONTINUOUS
 62
    3
 10
792.4137
 20
1467.383
 11
792.75021
 21
1467.9806
  0
LINE
  8
1-2
  6
CONTINUOUS
 62
    3
 10
792.75021
 20
1467.9806
 11
793.12311
 21
1468.5272
  0
LINE
  8
1-2
  6
CONTINUOUS
 62
    3
 10
793.12311
 20
1468.5272
 11
793.52841
 21
1469.022
  0
LINE
  8
1-2
  6
CONTINUOUS
 62
    3
 10
793.52841
 20
1469.022
 11
793.96254
 21
1469.4652
  0
LINE
  8
1-2
  6
CONTINUOUS
 62
    3
 10
793.96254
 20
1469.4652
 11
794.42167
 21
1469.8574
  0
LINE
  8
1-2
  6
CONTINUOUS
 62
    3
 10
794.42167
 20
1469.8574
 11
794.9017
 21
1470.1999
  0
LINE
  8
1-2
  6
CONTINUOUS
 62
    3
 10
794.9017
 20
1470.1999
 11
795.39893
 21
1470.4918
  0
LINE
  8
1-2
  6
CONTINUOUS
 62
    3
 10
795.39893
 20
1470.4918
 11
795.90878
 21
1470.7346
  0
LINE
  8
1-2
  6
CONTINUOUS
 62
    3
 10
795.90878
 20
1470.7346
 11
796.42742
 21
1470.9301
  0
LINE
  8
1-2
  6
CONTINUOUS
 62
    3
 10
796.42742
 20
1470.9301
 11
796.95013
 21
1471.079
  0
LINE
  8
1-2
  6
CONTINUOUS
 62
    3
 10
796.95013
 20
1471.079
 11
797.4726
 21
1471.1822
  0
LINE
  8
1-2
  6
CONTINUOUS
 62
    3
 10
797.4726
 20
1471.1822
 11
797.99049
 21
1471.2418
  0
LINE
  8
1-2
  6
CONTINUOUS
 62
    3
 10
797.99049
 20
1471.2418
 11
798.49886
 21
1471.2596
  0
LINE
  8
1-2
  6
CONTINUOUS
 62
    3
 10
798.49886
 20
1471.2596
 11
798.99312
 21
1471.2379
  0
LINE
  8
1-2
  6
CONTINUOUS
 62
    3
 10
798.99312
 20
1471.2379
 11
799.4687
 21
1471.1785
  0
LINE
  8
1-2
  6
CONTINUOUS
 62
    3
 10
799.4687
 20
1471.1785
 11
799.92028
 21
1471.0832
  0
LINE
  8
1-2
  6
CONTINUOUS
 62
    3
 10
799.92028
 20
1471.0832
 11
800.3429
 21
1470.9553
  0
LINE
  8
1-2
  6
CONTINUOUS
 62
    3
 10
716.6345
 20
1466.0342
 11
708.33302
 21
1466.0342
  0
LINE
  8
1-2
  6
CONTINUOUS
 62
    3
 10
635.32577
 20
1549.3672
 11
716.6345
 21
1466.0342
  0
LINE
  8
1-2
  6
CONTINUOUS
 62
    3
 10
721.99813
 20
1466.0342
 11
641.99749
 21
1549.3672
  0
LINE
  8
1-2
  6
CONTINUOUS
 62
    3
 10
658.27124
 20
1549.3672
 11
735.08077
 21
1466.0342
  0
LINE
  8
1-2
  6
CONTINUOUS
 62
    3
 10
735.08077
 20
1466.0342
 11
721.99813
 21
1466.0342
  0
LINE
  8
1-2
  6
CONTINUOUS
 62
    3
 10
742.7686
 20
1466.0342
 11
667.83392
 21
1549.3672
  0
LINE
  8
1-2
  6
CONTINUOUS
 62
    3
 10
760.34426
 20
1466.0342
 11
742.7686
 21
1466.0342
  0
LINE
  8
1-2
  6
CONTINUOUS
 62
    3
 10
689.69647
 20
1549.3672
 11
760.34426
 21
1466.0342
  0
LINE
  8
1-2
  6
CONTINUOUS
 62
    3
 10
770.18989
 20
1466.0342
 11
701.94338
 21
1549.3672
  0
LINE
  8
1-2
  6
CONTINUOUS
 62
    3
 10
791.87774
 20
1466.0342
 11
770.18989
 21
1466.0342
  0
LINE
  8
1-2
  6
CONTINUOUS
 62
    3
 10
728.92113
 20
1549.3672
 11
791.87774
 21
1466.0342
  0
LINE
  8
1-2
  6
CONTINUOUS
 62
    3
 10
803.668
 20
1466.0342
 11
743.58701
 21
1549.3672
  0
LINE
  8
1-2
  6
CONTINUOUS
 62
    3
 10
828.99891
 20
1466.0342
 11
803.668
 21
1466.0342
  0
LINE
  8
1-2
  6
CONTINUOUS
 62
    3
 10
775.09625
 20
1549.3672
 11
828.99891
 21
1466.0342
  0
LINE
  8
1-2
  6
CONTINUOUS
 62
    3
 10
842.47869
 20
1466.0342
 11
791.86364
 21
1549.3672
  0
LINE
  8
1-2
  6
CONTINUOUS
 62
    3
 10
870.90409
 20
1466.0342
 11
842.47869
 21
1466.0342
  0
LINE
  8
1-2
  6
CONTINUOUS
 62
    3
 10
885.78141
 20
1466.0342
 11
845.72807
 21
1549.3672
  0
LINE
  8
1-2
  6
CONTINUOUS
 62
    3
 10
916.68615
 20
1466.0342
 11
885.78141
 21
1466.0342
  0
LINE
  8
1-2
  6
CONTINUOUS
 62
    3
 10
884.17057
 20
1549.3672
 11
916.68615
 21
1466.0342
  0
LINE
  8
1-2
  6
CONTINUOUS
 62
    3
 10
904.01426
 20
1549.3672
 11
932.63909
 21
1466.0342
  0
LINE
  8
1-2
  6
CONTINUOUS
 62
    3
 10
965.35397
 20
1466.0342
 11
932.63909
 21
1466.0342
  0
LINE
  8
1-2
  6
CONTINUOUS
 62
    3
 10
965.35397
 20
1466.0342
 11
944.70858
 21
1549.3672
  0
LINE
  8
1-2
  6
CONTINUOUS
 62
    3
 10
965.46087
 20
1549.3672
 11
982.03736
 21
1466.0342
  0
LINE
  8
1-2
  6
CONTINUOUS
 62
    3
 10
1015.8543
 20
1466.0342
 11
982.03736
 21
1466.0342
  0
LINE
  8
1-2
  6
CONTINUOUS
 62
    3
 10
1015.8543
 20
1466.0342
 11
1007.526
 21
1549.3672
  0
LINE
  8
1-2
  6
CONTINUOUS
 62
    3
 10
1032.9065
 20
1466.0342
 11
1028.7374
 21
1549.3672
  0
LINE
  8
1-2
  6
CONTINUOUS
 62
    3
 10
1050
 20
1466.0342
 11
1032.9065
 21
1466.0342
  0
LINE
  8
1-2
  6
CONTINUOUS
 62
    3
 10
1475.0001
 20
1549.3672
 11
1391.667
 21
1466.0342
  0
LINE
  8
1-2
  6
CONTINUOUS
 62
    3
 10
1124.0393
 20
1472.9219
 11
1123.3535
 21
1472.7386
  0
LINE
  8
1-2
  6
CONTINUOUS
 62
    3
 10
1123.3535
 20
1472.7386
 11
1122.7092
 21
1472.4889
  0
LINE
  8
1-2
  6
CONTINUOUS
 62
    3
 10
1122.7092
 20
1472.4889
 11
1122.1061
 21
1472.1776
  0
LINE
  8
1-2
  6
CONTINUOUS
 62
    3
 10
1122.1061
 20
1472.1776
 11
1121.5431
 21
1471.8097
  0
LINE
  8
1-2
  6
CONTINUOUS
 62
    3
 10
1121.5431
 20
1471.8097
 11
1121.0198
 21
1471.3895
  0
LINE
  8
1-2
  6
CONTINUOUS
 62
    3
 10
1121.0198
 20
1471.3895
 11
1120.5352
 21
1470.9219
  0
LINE
  8
1-2
  6
CONTINUOUS
 62
    3
 10
1120.5352
 20
1470.9219
 11
1120.0886
 21
1470.4114
  0
LINE
  8
1-2
  6
CONTINUOUS
 62
    3
 10
1120.0886
 20
1470.4114
 11
1119.6791
 21
1469.8628
  0
LINE
  8
1-2
  6
CONTINUOUS
 62
    3
 10
1119.6791
 20
1469.8628
 11
1119.3063
 21
1469.2809
  0
LINE
  8
1-2
  6
CONTINUOUS
 62
    3
 10
1119.3063
 20
1469.2809
 11
1118.9689
 21
1468.6707
  0
LINE
  8
1-2
  6
CONTINUOUS
 62
    3
 10
1118.9689
 20
1468.6707
 11
1118.667
 21
1468.0355
  0
LINE
  8
1-2
  6
CONTINUOUS
 62
    3
 10
1118.667
 20
1468.0355
 11
1118.3989
 21
1467.3815
  0
LINE
  8
1-2
  6
CONTINUOUS
 62
    3
 10
1118.3989
 20
1467.3815
 11
1118.1644
 21
1466.7129
  0
LINE
  8
1-2
  6
CONTINUOUS
 62
    3
 10
1118.1644
 20
1466.7129
 11
1117.9627
 21
1466.0342
  0
LINE
  8
1-2
  6
CONTINUOUS
 62
    3
 10
1127.8068
 20
1472.9591
 11
1128.6001
 21
1472.7042
  0
LINE
  8
1-2
  6
CONTINUOUS
 62
    3
 10
1128.6001
 20
1472.7042
 11
1129.3441
 21
1472.4028
  0
LINE
  8
1-2
  6
CONTINUOUS
 62
    3
 10
1129.3441
 20
1472.4028
 11
1130.0402
 21
1472.0581
  0
LINE
  8
1-2
  6
CONTINUOUS
 62
    3
 10
1130.0402
 20
1472.0581
 11
1130.6879
 21
1471.6711
  0
LINE
  8
1-2
  6
CONTINUOUS
 62
    3
 10
1130.6879
 20
1471.6711
 11
1131.2881
 21
1471.2455
  0
LINE
  8
1-2
  6
CONTINUOUS
 62
    3
 10
1131.2881
 20
1471.2455
 11
1131.842
 21
1470.7828
  0
LINE
  8
1-2
  6
CONTINUOUS
 62
    3
 10
1131.842
 20
1470.7828
 11
1132.3492
 21
1470.2855
  0
LINE
  8
1-2
  6
CONTINUOUS
 62
    3
 10
1132.3492
 20
1470.2855
 11
1132.8103
 21
1469.7564
  0
LINE
  8
1-2
  6
CONTINUOUS
 62
    3
 10
1132.8103
 20
1469.7564
 11
1133.2266
 21
1469.1972
  0
LINE
  8
1-2
  6
CONTINUOUS
 62
    3
 10
1133.2266
 20
1469.1972
 11
1133.5979
 21
1468.6103
  0
LINE
  8
1-2
  6
CONTINUOUS
 62
    3
 10
1133.5979
 20
1468.6103
 11
1133.925
 21
1467.9979
  0
LINE
  8
1-2
  6
CONTINUOUS
 62
    3
 10
1133.925
 20
1467.9979
 11
1134.2084
 21
1467.3632
  0
LINE
  8
1-2
  6
CONTINUOUS
 62
    3
 10
1134.2084
 20
1467.3632
 11
1134.4484
 21
1466.708
  0
LINE
  8
1-2
  6
CONTINUOUS
 62
    3
 10
1134.4484
 20
1466.708
 11
1134.6458
 21
1466.0342
  0
LINE
  8
1-2
  6
CONTINUOUS
 62
    3
 10
1167.361
 20
1466.0342
 11
1168.1293
 21
1467.1529
  0
LINE
  8
1-2
  6
CONTINUOUS
 62
    3
 10
1168.1293
 20
1467.1529
 11
1168.9064
 21
1468.1481
  0
LINE
  8
1-2
  6
CONTINUOUS
 62
    3
 10
1168.9064
 20
1468.1481
 11
1169.6895
 21
1469.0265
  0
LINE
  8
1-2
  6
CONTINUOUS
 62
    3
 10
1169.6895
 20
1469.0265
 11
1170.4751
 21
1469.7953
  0
LINE
  8
1-2
  6
CONTINUOUS
 62
    3
 10
1170.4751
 20
1469.7953
 11
1171.2607
 21
1470.4609
  0
LINE
  8
1-2
  6
CONTINUOUS
 62
    3
 10
1171.2607
 20
1470.4609
 11
1172.0431
 21
1471.0303
  0
LINE
  8
1-2
  6
CONTINUOUS
 62
    3
 10
1172.0431
 20
1471.0303
 11
1172.8192
 21
1471.5113
  0
LINE
  8
1-2
  6
CONTINUOUS
 62
    3
 10
1172.8192
 20
1471.5113
 11
1173.5857
 21
1471.9097
  0
LINE
  8
1-2
  6
CONTINUOUS
 62
    3
 10
1173.5857
 20
1471.9097
 11
1174.3398
 21
1472.2326
  0
LINE
  8
1-2
  6
CONTINUOUS
 62
    3
 10
1174.3398
 20
1472.2326
 11
1175.0784
 21
1472.4869
  0
LINE
  8
1-2
  6
CONTINUOUS
 62
    3
 10
1175.0784
 20
1472.4869
 11
1175.7984
 21
1472.6804
  0
LINE
  8
1-2
  6
CONTINUOUS
 62
    3
 10
1175.7984
 20
1472.6804
 11
1176.4966
 21
1472.8185
  0
LINE
  8
1-2
  6
CONTINUOUS
 62
    3
 10
1176.4966
 20
1472.8185
 11
1177.1705
 21
1472.9096
  0
LINE
  8
1-2
  6
CONTINUOUS
 62
    3
 10
1177.1705
 20
1472.9096
 11
1177.8163
 21
1472.9591
  0
LINE
  8
1-2
  6
CONTINUOUS
 62
    3
 10
1183.314
 20
1466.0342
 11
1183.2909
 21
1466.8386
  0
LINE
  8
1-2
  6
CONTINUOUS
 62
    3
 10
1183.2909
 20
1466.8386
 11
1183.2212
 21
1467.5827
  0
LINE
  8
1-2
  6
CONTINUOUS
 62
    3
 10
1183.2212
 20
1467.5827
 11
1183.1028
 21
1468.2686
  0
LINE
  8
1-2
  6
CONTINUOUS
 62
    3
 10
1183.1028
 20
1468.2686
 11
1182.9325
 21
1468.8998
  0
LINE
  8
1-2
  6
CONTINUOUS
 62
    3
 10
1182.9325
 20
1468.8998
 11
1182.7082
 21
1469.4801
  0
LINE
  8
1-2
  6
CONTINUOUS
 62
    3
 10
1182.7082
 20
1469.4801
 11
1182.4267
 21
1470.013
  0
LINE
  8
1-2
  6
CONTINUOUS
 62
    3
 10
1182.4267
 20
1470.013
 11
1182.0859
 21
1470.5007
  0
LINE
  8
1-2
  6
CONTINUOUS
 62
    3
 10
1182.0859
 20
1470.5007
 11
1181.6829
 21
1470.9484
  0
LINE
  8
1-2
  6
CONTINUOUS
 62
    3
 10
1181.6829
 20
1470.9484
 11
1181.2152
 21
1471.3579
  0
LINE
  8
1-2
  6
CONTINUOUS
 62
    3
 10
1181.2152
 20
1471.3579
 11
1180.6804
 21
1471.733
  0
LINE
  8
1-2
  6
CONTINUOUS
 62
    3
 10
1180.6804
 20
1471.733
 11
1180.0757
 21
1472.0779
  0
LINE
  8
1-2
  6
CONTINUOUS
 62
    3
 10
1180.0757
 20
1472.0779
 11
1179.3987
 21
1472.3946
  0
LINE
  8
1-2
  6
CONTINUOUS
 62
    3
 10
1179.3987
 20
1472.3946
 11
1178.6461
 21
1472.6879
  0
LINE
  8
1-2
  6
CONTINUOUS
 62
    3
 10
1178.6461
 20
1472.6879
 11
1177.8163
 21
1472.9591
  0
LINE
  8
1-2
  6
CONTINUOUS
 62
    3
 10
1229.096
 20
1466.0342
 11
1228.7039
 21
1466.9794
  0
LINE
  8
1-2
  6
CONTINUOUS
 62
    3
 10
1228.7039
 20
1466.9794
 11
1228.2961
 21
1467.8368
  0
LINE
  8
1-2
  6
CONTINUOUS
 62
    3
 10
1228.2961
 20
1467.8368
 11
1227.8721
 21
1468.6103
  0
LINE
  8
1-2
  6
CONTINUOUS
 62
    3
 10
1227.8721
 20
1468.6103
 11
1227.4326
 21
1469.3049
  0
LINE
  8
1-2
  6
CONTINUOUS
 62
    3
 10
1227.4326
 20
1469.3049
 11
1226.9783
 21
1469.924
  0
LINE
  8
1-2
  6
CONTINUOUS
 62
    3
 10
1226.9783
 20
1469.924
 11
1226.5091
 21
1470.4723
  0
LINE
  8
1-2
  6
CONTINUOUS
 62
    3
 10
1226.5091
 20
1470.4723
 11
1226.0259
 21
1470.9541
  0
LINE
  8
1-2
  6
CONTINUOUS
 62
    3
 10
1226.0259
 20
1470.9541
 11
1225.5285
 21
1471.373
  0
LINE
  8
1-2
  6
CONTINUOUS
 62
    3
 10
1225.5285
 20
1471.373
 11
1225.0182
 21
1471.734
  0
LINE
  8
1-2
  6
CONTINUOUS
 62
    3
 10
1225.0182
 20
1471.734
 11
1224.4946
 21
1472.0408
  0
LINE
  8
1-2
  6
CONTINUOUS
 62
    3
 10
1224.4946
 20
1472.0408
 11
1223.9585
 21
1472.2972
  0
LINE
  8
1-2
  6
CONTINUOUS
 62
    3
 10
1223.9585
 20
1472.2972
 11
1223.4098
 21
1472.5087
  0
LINE
  8
1-2
  6
CONTINUOUS
 62
    3
 10
1223.4098
 20
1472.5087
 11
1222.8495
 21
1472.6782
  0
LINE
  8
1-2
  6
CONTINUOUS
 62
    3
 10
1222.8495
 20
1472.6782
 11
1222.2779
 21
1472.8111
  0
LINE
  8
1-2
  6
CONTINUOUS
 62
    3
 10
1221.0209
 20
1472.8111
 11
1220.4251
 21
1472.698
  0
LINE
  8
1-2
  6
CONTINUOUS
 62
    3
 10
1220.4251
 20
1472.698
 11
1219.8337
 21
1472.5179
  0
LINE
  8
1-2
  6
CONTINUOUS
 62
    3
 10
1219.8337
 20
1472.5179
 11
1219.2472
 21
1472.2709
  0
LINE
  8
1-2
  6
CONTINUOUS
 62
    3
 10
1219.2472
 20
1472.2709
 11
1218.6653
 21
1471.9569
  0
LINE
  8
1-2
  6
CONTINUOUS
 62
    3
 10
1218.6653
 20
1471.9569
 11
1218.0886
 21
1471.5769
  0
LINE
  8
1-2
  6
CONTINUOUS
 62
    3
 10
1218.0886
 20
1471.5769
 11
1217.5164
 21
1471.1292
  0
LINE
  8
1-2
  6
CONTINUOUS
 62
    3
 10
1217.5164
 20
1471.1292
 11
1216.9493
 21
1470.6146
  0
LINE
  8
1-2
  6
CONTINUOUS
 62
    3
 10
1216.9493
 20
1470.6146
 11
1216.3868
 21
1470.0336
  0
LINE
  8
1-2
  6
CONTINUOUS
 62
    3
 10
1216.3868
 20
1470.0336
 11
1215.8295
 21
1469.3858
  0
LINE
  8
1-2
  6
CONTINUOUS
 62
    3
 10
1271.0009
 20
1466.0342
 11
1270.8877
 21
1466.7545
  0
LINE
  8
1-2
  6
CONTINUOUS
 62
    3
 10
1270.8877
 20
1466.7545
 11
1270.7266
 21
1467.4251
  0
LINE
  8
1-2
  6
CONTINUOUS
 62
    3
 10
1270.7266
 20
1467.4251
 11
1270.5221
 21
1468.0484
  0
LINE
  8
1-2
  6
CONTINUOUS
 62
    3
 10
1270.5221
 20
1468.0484
 11
1270.2774
 21
1468.6256
  0
LINE
  8
1-2
  6
CONTINUOUS
 62
    3
 10
1270.2774
 20
1468.6256
 11
1269.9963
 21
1469.1589
  0
LINE
  8
1-2
  6
CONTINUOUS
 62
    3
 10
1269.9963
 20
1469.1589
 11
1269.6817
 21
1469.6505
  0
LINE
  8
1-2
  6
CONTINUOUS
 62
    3
 10
1269.6817
 20
1469.6505
 11
1269.3372
 21
1470.1021
  0
LINE
  8
1-2
  6
CONTINUOUS
 62
    3
 10
1269.3372
 20
1470.1021
 11
1268.9659
 21
1470.5141
  0
LINE
  8
1-2
  6
CONTINUOUS
 62
    3
 10
1268.9659
 20
1470.5141
 11
1268.5702
 21
1470.8892
  0
LINE
  8
1-2
  6
CONTINUOUS
 62
    3
 10
1268.5702
 20
1470.8892
 11
1268.1529
 21
1471.2282
  0
LINE
  8
1-2
  6
CONTINUOUS
 62
    3
 10
1268.1529
 20
1471.2282
 11
1267.7164
 21
1471.5323
  0
LINE
  8
1-2
  6
CONTINUOUS
 62
    3
 10
1267.7164
 20
1471.5323
 11
1267.2629
 21
1471.8028
  0
LINE
  8
1-2
  6
CONTINUOUS
 62
    3
 10
1267.2629
 20
1471.8028
 11
1266.7944
 21
1472.0403
  0
LINE
  8
1-2
  6
CONTINUOUS
 62
    3
 10
1266.7944
 20
1472.0403
 11
1266.3128
 21
1472.2457
  0
LINE
  8
1-2
  6
CONTINUOUS
 62
    3
 10
1266.3128
 20
1472.2457
 11
1265.8195
 21
1472.4194
  0
LINE
  8
1-2
  6
CONTINUOUS
 62
    3
 10
1265.8195
 20
1472.4194
 11
1265.3163
 21
1472.5629
  0
LINE
  8
1-2
  6
CONTINUOUS
 62
    3
 10
1265.3163
 20
1472.5629
 11
1264.8046
 21
1472.6755
  0
LINE
  8
1-2
  6
CONTINUOUS
 62
    3
 10
1264.8046
 20
1472.6755
 11
1264.285
 21
1472.7584
  0
LINE
  8
1-2
  6
CONTINUOUS
 62
    3
 10
1264.285
 20
1472.7584
 11
1263.7589
 21
1472.8111
  0
LINE
  8
1-2
  6
CONTINUOUS
 62
    3
 10
1263.6262
 20
1472.8054
 11
1263.3299
 21
1472.7757
  0
LINE
  8
1-2
  6
CONTINUOUS
 62
    3
 10
1263.3299
 20
1472.7757
 11
1263.0386
 21
1472.7336
  0
LINE
  8
1-2
  6
CONTINUOUS
 62
    3
 10
1263.0386
 20
1472.7336
 11
1262.7525
 21
1472.6787
  0
LINE
  8
1-2
  6
CONTINUOUS
 62
    3
 10
1262.7525
 20
1472.6787
 11
1262.4716
 21
1472.6112
  0
LINE
  8
1-2
  6
CONTINUOUS
 62
    3
 10
1262.4716
 20
1472.6112
 11
1262.1957
 21
1472.5307
  0
LINE
  8
1-2
  6
CONTINUOUS
 62
    3
 10
1262.1957
 20
1472.5307
 11
1261.925
 21
1472.4375
  0
LINE
  8
1-2
  6
CONTINUOUS
 62
    3
 10
1261.925
 20
1472.4375
 11
1261.6594
 21
1472.3316
  0
LINE
  8
1-2
  6
CONTINUOUS
 62
    3
 10
1261.6594
 20
1472.3316
 11
1261.399
 21
1472.2128
  0
LINE
  8
1-2
  6
CONTINUOUS
 62
    3
 10
1261.399
 20
1472.2128
 11
1261.1433
 21
1472.0811
  0
LINE
  8
1-2
  6
CONTINUOUS
 62
    3
 10
1383.3657
 20
1466.0342
 11
1383.2642
 21
1466.7921
  0
LINE
  8
1-2
  6
CONTINUOUS
 62
    3
 10
1383.2642
 20
1466.7921
 11
1383.1566
 21
1467.4845
  0
LINE
  8
1-2
  6
CONTINUOUS
 62
    3
 10
1383.1566
 20
1467.4845
 11
1383.0438
 21
1468.1117
  0
LINE
  8
1-2
  6
CONTINUOUS
 62
    3
 10
1383.0438
 20
1468.1117
 11
1382.9245
 21
1468.6734
  0
LINE
  8
1-2
  6
CONTINUOUS
 62
    3
 10
1382.9245
 20
1468.6734
 11
1382.7995
 21
1469.17
  0
LINE
  8
1-2
  6
CONTINUOUS
 62
    3
 10
1382.7995
 20
1469.17
 11
1382.6686
 21
1469.6011
  0
LINE
  8
1-2
  6
CONTINUOUS
 62
    3
 10
1382.6686
 20
1469.6011
 11
1382.5318
 21
1469.9663
  0
LINE
  8
1-2
  6
CONTINUOUS
 62
    3
 10
1382.5318
 20
1469.9663
 11
1382.3893
 21
1470.2667
  0
LINE
  8
1-2
  6
CONTINUOUS
 62
    3
 10
1382.3893
 20
1470.2667
 11
1382.2408
 21
1470.5007
  0
LINE
  8
1-2
  6
CONTINUOUS
 62
    3
 10
1364.9192
 20
1466.0342
 11
1364.8631
 21
1466.6345
  0
LINE
  8
1-2
  6
CONTINUOUS
 62
    3
 10
1364.8631
 20
1466.6345
 11
1364.7703
 21
1467.2021
  0
LINE
  8
1-2
  6
CONTINUOUS
 62
    3
 10
1364.7703
 20
1467.2021
 11
1364.6449
 21
1467.7366
  0
LINE
  8
1-2
  6
CONTINUOUS
 62
    3
 10
1364.6449
 20
1467.7366
 11
1364.4907
 21
1468.2389
  0
LINE
  8
1-2
  6
CONTINUOUS
 62
    3
 10
1364.4907
 20
1468.2389
 11
1364.3105
 21
1468.7078
  0
LINE
  8
1-2
  6
CONTINUOUS
 62
    3
 10
1364.3105
 20
1468.7078
 11
1364.1085
 21
1469.1428
  0
LINE
  8
1-2
  6
CONTINUOUS
 62
    3
 10
1364.1085
 20
1469.1428
 11
1363.8882
 21
1469.5449
  0
LINE
  8
1-2
  6
CONTINUOUS
 62
    3
 10
1363.8882
 20
1469.5449
 11
1363.6531
 21
1469.9131
  0
LINE
  8
1-2
  6
CONTINUOUS
 62
    3
 10
1363.6531
 20
1469.9131
 11
1363.4069
 21
1470.2484
  0
LINE
  8
1-2
  6
CONTINUOUS
 62
    3
 10
1363.4069
 20
1470.2484
 11
1363.1533
 21
1470.549
  0
LINE
  8
1-2
  6
CONTINUOUS
 62
    3
 10
1363.1533
 20
1470.549
 11
1362.8953
 21
1470.816
  0
LINE
  8
1-2
  6
CONTINUOUS
 62
    3
 10
1362.8953
 20
1470.816
 11
1362.6374
 21
1471.0486
  0
LINE
  8
1-2
  6
CONTINUOUS
 62
    3
 10
1362.6374
 20
1471.0486
 11
1362.3825
 21
1471.2465
  0
LINE
  8
1-2
  6
CONTINUOUS
 62
    3
 10
1362.3825
 20
1471.2465
 11
1362.1345
 21
1471.4098
  0
LINE
  8
1-2
  6
CONTINUOUS
 62
    3
 10
1339.6558
 20
1466.0342
 11
1339.4883
 21
1466.7023
  0
LINE
  8
1-2
  6
CONTINUOUS
 62
    3
 10
1339.4883
 20
1466.7023
 11
1339.2844
 21
1467.3273
  0
LINE
  8
1-2
  6
CONTINUOUS
 62
    3
 10
1339.2844
 20
1467.3273
 11
1339.0454
 21
1467.911
  0
LINE
  8
1-2
  6
CONTINUOUS
 62
    3
 10
1339.0454
 20
1467.911
 11
1338.7731
 21
1468.4524
  0
LINE
  8
1-2
  6
CONTINUOUS
 62
    3
 10
1338.7731
 20
1468.4524
 11
1338.4687
 21
1468.9528
  0
LINE
  8
1-2
  6
CONTINUOUS
 62
    3
 10
1338.4687
 20
1468.9528
 11
1338.1338
 21
1469.4113
  0
LINE
  8
1-2
  6
CONTINUOUS
 62
    3
 10
1338.1338
 20
1469.4113
 11
1337.7701
 21
1469.8289
  0
LINE
  8
1-2
  6
CONTINUOUS
 62
    3
 10
1337.7701
 20
1469.8289
 11
1337.3782
 21
1470.2063
  0
LINE
  8
1-2
  6
CONTINUOUS
 62
    3
 10
1337.3782
 20
1470.2063
 11
1336.9607
 21
1470.5433
  0
LINE
  8
1-2
  6
CONTINUOUS
 62
    3
 10
1336.9607
 20
1470.5433
 11
1336.5183
 21
1470.8407
  0
LINE
  8
1-2
  6
CONTINUOUS
 62
    3
 10
1336.5183
 20
1470.8407
 11
1336.0526
 21
1471.0981
  0
LINE
  8
1-2
  6
CONTINUOUS
 62
    3
 10
1336.0526
 20
1471.0981
 11
1335.5651
 21
1471.3166
  0
LINE
  8
1-2
  6
CONTINUOUS
 62
    3
 10
1335.5651
 20
1471.3166
 11
1335.0573
 21
1471.4959
  0
LINE
  8
1-2
  6
CONTINUOUS
 62
    3
 10
1335.0573
 20
1471.4959
 11
1334.5308
 21
1471.637
  0
LINE
  8
1-2
  6
CONTINUOUS
 62
    3
 10
1308.1364
 20
1466.0342
 11
1307.883
 21
1466.7345
  0
LINE
  8
1-2
  6
CONTINUOUS
 62
    3
 10
1307.883
 20
1466.7345
 11
1307.5864
 21
1467.383
  0
LINE
  8
1-2
  6
CONTINUOUS
 62
    3
 10
1307.5864
 20
1467.383
 11
1307.2498
 21
1467.9806
  0
LINE
  8
1-2
  6
CONTINUOUS
 62
    3
 10
1307.2498
 20
1467.9806
 11
1306.8769
 21
1468.5272
  0
LINE
  8
1-2
  6
CONTINUOUS
 62
    3
 10
1306.8769
 20
1468.5272
 11
1306.4716
 21
1469.022
  0
LINE
  8
1-2
  6
CONTINUOUS
 62
    3
 10
1306.4716
 20
1469.022
 11
1306.0375
 21
1469.4652
  0
LINE
  8
1-2
  6
CONTINUOUS
 62
    3
 10
1306.0375
 20
1469.4652
 11
1305.5784
 21
1469.8574
  0
LINE
  8
1-2
  6
CONTINUOUS
 62
    3
 10
1305.5784
 20
1469.8574
 11
1305.0981
 21
1470.1999
  0
LINE
  8
1-2
  6
CONTINUOUS
 62
    3
 10
1305.0981
 20
1470.1999
 11
1304.601
 21
1470.4918
  0
LINE
  8
1-2
  6
CONTINUOUS
 62
    3
 10
1304.601
 20
1470.4918
 11
1304.091
 21
1470.7346
  0
LINE
  8
1-2
  6
CONTINUOUS
 62
    3
 10
1304.091
 20
1470.7346
 11
1303.5726
 21
1470.9301
  0
LINE
  8
1-2
  6
CONTINUOUS
 62
    3
 10
1303.5726
 20
1470.9301
 11
1303.0497
 21
1471.079
  0
LINE
  8
1-2
  6
CONTINUOUS
 62
    3
 10
1303.0497
 20
1471.079
 11
1302.5272
 21
1471.1822
  0
LINE
  8
1-2
  6
CONTINUOUS
 62
    3
 10
1302.5272
 20
1471.1822
 11
1302.0097
 21
1471.2418
  0
LINE
  8
1-2
  6
CONTINUOUS
 62
    3
 10
1302.0097
 20
1471.2418
 11
1301.5012
 21
1471.2596
  0
LINE
  8
1-2
  6
CONTINUOUS
 62
    3
 10
1301.5012
 20
1471.2596
 11
1301.0067
 21
1471.2379
  0
LINE
  8
1-2
  6
CONTINUOUS
 62
    3
 10
1301.0067
 20
1471.2379
 11
1300.5314
 21
1471.1785
  0
LINE
  8
1-2
  6
CONTINUOUS
 62
    3
 10
1300.5314
 20
1471.1785
 11
1300.0798
 21
1471.0832
  0
LINE
  8
1-2
  6
CONTINUOUS
 62
    3
 10
1300.0798
 20
1471.0832
 11
1299.6571
 21
1470.9553
  0
LINE
  8
1-2
  6
CONTINUOUS
 62
    3
 10
1383.3657
 20
1466.0342
 11
1391.667
 21
1466.0342
  0
LINE
  8
1-2
  6
CONTINUOUS
 62
    3
 10
1464.6744
 20
1549.3672
 11
1383.3657
 21
1466.0342
  0
LINE
  8
1-2
  6
CONTINUOUS
 62
    3
 10
1378.0019
 20
1466.0342
 11
1458.0022
 21
1549.3672
  0
LINE
  8
1-2
  6
CONTINUOUS
 62
    3
 10
1441.7288
 20
1549.3672
 11
1364.9192
 21
1466.0342
  0
LINE
  8
1-2
  6
CONTINUOUS
 62
    3
 10
1364.9192
 20
1466.0342
 11
1378.0019
 21
1466.0342
  0
LINE
  8
1-2
  6
CONTINUOUS
 62
    3
 10
1357.2314
 20
1466.0342
 11
1432.1658
 21
1549.3672
  0
LINE
  8
1-2
  6
CONTINUOUS
 62
    3
 10
1339.6558
 20
1466.0342
 11
1357.2314
 21
1466.0342
  0
LINE
  8
1-2
  6
CONTINUOUS
 62
    3
 10
1410.3035
 20
1549.3672
 11
1339.6558
 21
1466.0342
  0
LINE
  8
1-2
  6
CONTINUOUS
 62
    3
 10
1329.8102
 20
1466.0342
 11
1398.0564
 21
1549.3672
  0
LINE
  8
1-2
  6
CONTINUOUS
 62
    3
 10
1308.1222
 20
1466.0342
 11
1329.8102
 21
1466.0342
  0
LINE
  8
1-2
  6
CONTINUOUS
 62
    3
 10
1371.0789
 20
1549.3672
 11
1308.1222
 21
1466.0342
  0
LINE
  8
1-2
  6
CONTINUOUS
 62
    3
 10
1296.3322
 20
1466.0342
 11
1356.413
 21
1549.3672
  0
LINE
  8
1-2
  6
CONTINUOUS
 62
    3
 10
1271.0009
 20
1466.0342
 11
1296.3322
 21
1466.0342
  0
LINE
  8
1-2
  6
CONTINUOUS
 62
    3
 10
1324.9036
 20
1549.3672
 11
1271.0009
 21
1466.0342
  0
LINE
  8
1-2
  6
CONTINUOUS
 62
    3
 10
1257.5212
 20
1466.0342
 11
1308.1364
 21
1549.3672
  0
LINE
  8
1-2
  6
CONTINUOUS
 62
    3
 10
1229.096
 20
1466.0342
 11
1257.5212
 21
1466.0342
  0
LINE
  8
1-2
  6
CONTINUOUS
 62
    3
 10
1214.2186
 20
1466.0342
 11
1254.2719
 21
1549.3672
  0
LINE
  8
1-2
  6
CONTINUOUS
 62
    3
 10
1183.314
 20
1466.0342
 11
1214.2186
 21
1466.0342
  0
LINE
  8
1-2
  6
CONTINUOUS
 62
    3
 10
1215.8295
 20
1549.3672
 11
1183.314
 21
1466.0342
  0
LINE
  8
1-2
  6
CONTINUOUS
 62
    3
 10
1195.9858
 20
1549.3672
 11
1167.361
 21
1466.0342
  0
LINE
  8
1-2
  6
CONTINUOUS
 62
    3
 10
1134.6458
 20
1466.0342
 11
1167.361
 21
1466.0342
  0
LINE
  8
1-2
  6
CONTINUOUS
 62
    3
 10
1134.6458
 20
1466.0342
 11
1155.2915
 21
1549.3672
  0
LINE
  8
1-2
  6
CONTINUOUS
 62
    3
 10
1134.5391
 20
1549.3672
 11
1117.9627
 21
1466.0342
  0
LINE
  8
1-2
  6
CONTINUOUS
 62
    3
 10
1084.1457
 20
1466.0342
 11
1117.9627
 21
1466.0342
  0
LINE
  8
1-2
  6
CONTINUOUS
 62
    3
 10
1084.1457
 20
1466.0342
 11
1092.4739
 21
1549.3672
  0
LINE
  8
1-2
  6
CONTINUOUS
 62
    3
 10
1067.0934
 20
1466.0342
 11
1071.2625
 21
1549.3672
  0
LINE
  8
1-2
  6
CONTINUOUS
 62
    3
 10
1050
 20
1466.0342
 11
1067.0934
 21
1466.0342
  0
LINE
  8
1-2
  6
CONTINUOUS
 62
    3
 10
827.22217
 20
1549.3672
 11
870.90421
 21
1466.0342
  0
LINE
  8
1-2
  6
CONTINUOUS
 62
    3
 10
1272.7779
 20
1549.3672
 11
1229.0957
 21
1466.0342
  0
LINE
  8
1-2
  6
CONTINUOUS
 62
    3
 10
878.27915
 20
1466.0342
 11
878.27915
 21
1341.0345
  0
LINE
  8
1-2
  6
CONTINUOUS
 62
    3
 10
844.94579
 20
1466.0342
 11
844.94579
 21
1341.0345
  0
LINE
  8
1-2
  6
CONTINUOUS
 62
    3
 10
1221.7208
 20
1466.0342
 11
1221.7208
 21
1341.0345
  0
LINE
  8
1-2
  6
CONTINUOUS
 62
    3
 10
1255.0543
 20
1466.0342
 11
1255.0543
 21
1341.0345
  0
LINE
  8
1-8
  6
CONTINUOUS
 62
    7
 10
433.33371
 20
1274.3673
 11
433.33371
 21
2224.3678
  0
LINE
  8
1-2
  6
CONTINUOUS
 62
    3
 10
877.72204
 20
2092.5905
 11
877.87447
 21
2092.5798
  0
LINE
  8
1-2
  6
CONTINUOUS
 62
    3
 10
877.87447
 20
2092.5798
 11
878.02367
 21
2092.5719
  0
LINE
  8
1-2
  6
CONTINUOUS
 62
    3
 10
878.02367
 20
2092.5719
 11
878.16966
 21
2092.5667
  0
LINE
  8
1-2
  6
CONTINUOUS
 62
    3
 10
878.16966
 20
2092.5667
 11
878.31243
 21
2092.5637
  0
LINE
  8
1-2
  6
CONTINUOUS
 62
    3
 10
878.31243
 20
2092.5637
 11
878.45224
 21
2092.5637
  0
LINE
  8
1-2
  6
CONTINUOUS
 62
    3
 10
878.45224
 20
2092.5637
 11
878.58858
 21
2092.5667
  0
LINE
  8
1-2
  6
CONTINUOUS
 62
    3
 10
878.58858
 20
2092.5667
 11
878.72195
 21
2092.5719
  0
LINE
  8
1-2
  6
CONTINUOUS
 62
    3
 10
878.72195
 20
2092.5719
 11
878.8521
 21
2092.5798
  0
LINE
  8
1-2
  6
CONTINUOUS
 62
    3
 10
878.8521
 20
2092.5798
 11
878.97904
 21
2092.5905
  0
LINE
  8
1-2
  6
CONTINUOUS
 62
    3
 10
972.19321
 20
2092.443
 11
972.60136
 21
2092.4178
  0
LINE
  8
1-2
  6
CONTINUOUS
 62
    3
 10
972.60136
 20
2092.4178
 11
973.01211
 21
2092.3999
  0
LINE
  8
1-2
  6
CONTINUOUS
 62
    3
 10
973.01211
 20
2092.3999
 11
973.42546
 21
2092.3898
  0
LINE
  8
1-2
  6
CONTINUOUS
 62
    3
 10
973.42546
 20
2092.3898
 11
973.84153
 21
2092.3868
  0
LINE
  8
1-2
  6
CONTINUOUS
 62
    3
 10
973.84153
 20
2092.3868
 11
974.2602
 21
2092.391
  0
LINE
  8
1-2
  6
CONTINUOUS
 62
    3
 10
974.2602
 20
2092.391
 11
974.68134
 21
2092.4017
  0
LINE
  8
1-2
  6
CONTINUOUS
 62
    3
 10
974.68134
 20
2092.4017
 11
975.10508
 21
2092.4207
  0
LINE
  8
1-2
  6
CONTINUOUS
 62
    3
 10
975.10508
 20
2092.4207
 11
975.53155
 21
2092.4462
  0
LINE
  8
1-2
  6
CONTINUOUS
 62
    3
 10
975.53155
 20
2092.4462
 11
975.96061
 21
2092.4796
  0
LINE
  8
1-2
  6
CONTINUOUS
 62
    3
 10
1127.8068
 20
2092.443
 11
1127.3988
 21
2092.4178
  0
LINE
  8
1-2
  6
CONTINUOUS
 62
    3
 10
1127.3988
 20
2092.4178
 11
1126.9881
 21
2092.3999
  0
LINE
  8
1-2
  6
CONTINUOUS
 62
    3
 10
1126.9881
 20
2092.3999
 11
1126.5743
 21
2092.3898
  0
LINE
  8
1-2
  6
CONTINUOUS
 62
    3
 10
1126.5743
 20
2092.3898
 11
1126.1585
 21
2092.3868
  0
LINE
  8
1-2
  6
CONTINUOUS
 62
    3
 10
1126.1585
 20
2092.3868
 11
1125.7397
 21
2092.391
  0
LINE
  8
1-2
  6
CONTINUOUS
 62
    3
 10
1125.7397
 20
2092.391
 11
1125.3186
 21
2092.4017
  0
LINE
  8
1-2
  6
CONTINUOUS
 62
    3
 10
1125.3186
 20
2092.4017
 11
1124.8951
 21
2092.4207
  0
LINE
  8
1-2
  6
CONTINUOUS
 62
    3
 10
1124.8951
 20
2092.4207
 11
1124.4685
 21
2092.4462
  0
LINE
  8
1-2
  6
CONTINUOUS
 62
    3
 10
1124.4685
 20
2092.4462
 11
1124.0393
 21
2092.4796
  0
LINE
  8
1-2
  6
CONTINUOUS
 62
    3
 10
1263.6262
 20
2092.5967
 11
1263.3299
 21
2092.6261
  0
LINE
  8
1-2
  6
CONTINUOUS
 62
    3
 10
1263.3299
 20
2092.6261
 11
1263.0386
 21
2092.6682
  0
LINE
  8
1-2
  6
CONTINUOUS
 62
    3
 10
1263.0386
 20
2092.6682
 11
1262.7525
 21
2092.7233
  0
LINE
  8
1-2
  6
CONTINUOUS
 62
    3
 10
1262.7525
 20
2092.7233
 11
1262.4716
 21
2092.7909
  0
LINE
  8
1-2
  6
CONTINUOUS
 62
    3
 10
1262.4716
 20
2092.7909
 11
1262.1957
 21
2092.8711
  0
LINE
  8
1-2
  6
CONTINUOUS
 62
    3
 10
1262.1957
 20
2092.8711
 11
1261.925
 21
2092.9641
  0
LINE
  8
1-2
  6
CONTINUOUS
 62
    3
 10
1261.925
 20
2092.9641
 11
1261.6594
 21
2093.0703
  0
LINE
  8
1-2
  6
CONTINUOUS
 62
    3
 10
1261.6594
 20
2093.0703
 11
1261.399
 21
2093.189
  0
LINE
  8
1-2
  6
CONTINUOUS
 62
    3
 10
1261.399
 20
2093.189
 11
1261.1433
 21
2093.3204
  0
LINE
  8
1-2
  6
CONTINUOUS
 62
    3
 10
1222.2779
 20
2092.5905
 11
1222.1256
 21
2092.5798
  0
LINE
  8
1-2
  6
CONTINUOUS
 62
    3
 10
1222.1256
 20
2092.5798
 11
1221.9765
 21
2092.5719
  0
LINE
  8
1-2
  6
CONTINUOUS
 62
    3
 10
1221.9765
 20
2092.5719
 11
1221.8305
 21
2092.5667
  0
LINE
  8
1-2
  6
CONTINUOUS
 62
    3
 10
1221.8305
 20
2092.5667
 11
1221.6876
 21
2092.5637
  0
LINE
  8
1-2
  6
CONTINUOUS
 62
    3
 10
1221.6876
 20
2092.5637
 11
1221.5478
 21
2092.5637
  0
LINE
  8
1-2
  6
CONTINUOUS
 62
    3
 10
1221.5478
 20
2092.5637
 11
1221.4115
 21
2092.5667
  0
LINE
  8
1-2
  6
CONTINUOUS
 62
    3
 10
1221.4115
 20
2092.5667
 11
1221.2781
 21
2092.5719
  0
LINE
  8
1-2
  6
CONTINUOUS
 62
    3
 10
1221.2781
 20
2092.5719
 11
1221.148
 21
2092.5798
  0
LINE
  8
1-2
  6
CONTINUOUS
 62
    3
 10
1221.148
 20
2092.5798
 11
1221.0209
 21
2092.5905
  0
LINE
  8
1-2
  6
CONTINUOUS
 62
    3
 10
972.19321
 20
1472.9591
 11
972.60136
 21
1472.9843
  0
LINE
  8
1-2
  6
CONTINUOUS
 62
    3
 10
972.60136
 20
1472.9843
 11
973.01211
 21
1473.0016
  0
LINE
  8
1-2
  6
CONTINUOUS
 62
    3
 10
973.01211
 20
1473.0016
 11
973.42546
 21
1473.0123
  0
LINE
  8
1-2
  6
CONTINUOUS
 62
    3
 10
973.42546
 20
1473.0123
 11
973.84153
 21
1473.0152
  0
LINE
  8
1-2
  6
CONTINUOUS
 62
    3
 10
973.84153
 20
1473.0152
 11
974.2602
 21
1473.011
  0
LINE
  8
1-2
  6
CONTINUOUS
 62
    3
 10
974.2602
 20
1473.011
 11
974.68134
 21
1472.9999
  0
LINE
  8
1-2
  6
CONTINUOUS
 62
    3
 10
974.68134
 20
1472.9999
 11
975.10508
 21
1472.9813
  0
LINE
  8
1-2
  6
CONTINUOUS
 62
    3
 10
975.10508
 20
1472.9813
 11
975.53155
 21
1472.9553
  0
LINE
  8
1-2
  6
CONTINUOUS
 62
    3
 10
975.53155
 20
1472.9553
 11
975.96061
 21
1472.9224
  0
LINE
  8
1-2
  6
CONTINUOUS
 62
    3
 10
1127.8068
 20
1472.9591
 11
1127.3988
 21
1472.9843
  0
LINE
  8
1-2
  6
CONTINUOUS
 62
    3
 10
1127.3988
 20
1472.9843
 11
1126.9881
 21
1473.0016
  0
LINE
  8
1-2
  6
CONTINUOUS
 62
    3
 10
1126.9881
 20
1473.0016
 11
1126.5743
 21
1473.0123
  0
LINE
  8
1-2
  6
CONTINUOUS
 62
    3
 10
1126.5743
 20
1473.0123
 11
1126.1585
 21
1473.0152
  0
LINE
  8
1-2
  6
CONTINUOUS
 62
    3
 10
1126.1585
 20
1473.0152
 11
1125.7397
 21
1473.011
  0
LINE
  8
1-2
  6
CONTINUOUS
 62
    3
 10
1125.7397
 20
1473.011
 11
1125.3186
 21
1472.9999
  0
LINE
  8
1-2
  6
CONTINUOUS
 62
    3
 10
1125.3186
 20
1472.9999
 11
1124.8951
 21
1472.9813
  0
LINE
  8
1-2
  6
CONTINUOUS
 62
    3
 10
1124.8951
 20
1472.9813
 11
1124.4685
 21
1472.9553
  0
LINE
  8
1-2
  6
CONTINUOUS
 62
    3
 10
1124.4685
 20
1472.9553
 11
1124.0393
 21
1472.9224
  0
LINE
  8
1-2
  6
CONTINUOUS
 62
    3
 10
877.72204
 20
1472.8111
 11
877.87447
 21
1472.8217
  0
LINE
  8
1-2
  6
CONTINUOUS
 62
    3
 10
877.87447
 20
1472.8217
 11
878.02367
 21
1472.8301
  0
LINE
  8
1-2
  6
CONTINUOUS
 62
    3
 10
878.02367
 20
1472.8301
 11
878.16966
 21
1472.8353
  0
LINE
  8
1-2
  6
CONTINUOUS
 62
    3
 10
878.16966
 20
1472.8353
 11
878.31243
 21
1472.8383
  0
LINE
  8
1-2
  6
CONTINUOUS
 62
    3
 10
878.31243
 20
1472.8383
 11
878.45224
 21
1472.8383
  0
LINE
  8
1-2
  6
CONTINUOUS
 62
    3
 10
878.45224
 20
1472.8383
 11
878.58858
 21
1472.8353
  0
LINE
  8
1-2
  6
CONTINUOUS
 62
    3
 10
878.58858
 20
1472.8353
 11
878.72195
 21
1472.8301
  0
LINE
  8
1-2
  6
CONTINUOUS
 62
    3
 10
878.72195
 20
1472.8301
 11
878.8521
 21
1472.8217
  0
LINE
  8
1-2
  6
CONTINUOUS
 62
    3
 10
878.8521
 20
1472.8217
 11
878.97904
 21
1472.8111
  0
LINE
  8
1-2
  6
CONTINUOUS
 62
    3
 10
1222.2779
 20
1472.8111
 11
1222.1256
 21
1472.8217
  0
LINE
  8
1-2
  6
CONTINUOUS
 62
    3
 10
1222.1256
 20
1472.8217
 11
1221.9765
 21
1472.8301
  0
LINE
  8
1-2
  6
CONTINUOUS
 62
    3
 10
1221.9765
 20
1472.8301
 11
1221.8305
 21
1472.8353
  0
LINE
  8
1-2
  6
CONTINUOUS
 62
    3
 10
1221.8305
 20
1472.8353
 11
1221.6876
 21
1472.8383
  0
LINE
  8
1-2
  6
CONTINUOUS
 62
    3
 10
1221.6876
 20
1472.8383
 11
1221.5478
 21
1472.8383
  0
LINE
  8
1-2
  6
CONTINUOUS
 62
    3
 10
1221.5478
 20
1472.8383
 11
1221.4115
 21
1472.8353
  0
LINE
  8
1-2
  6
CONTINUOUS
 62
    3
 10
1221.4115
 20
1472.8353
 11
1221.2781
 21
1472.8301
  0
LINE
  8
1-2
  6
CONTINUOUS
 62
    3
 10
1221.2781
 20
1472.8301
 11
1221.148
 21
1472.8217
  0
LINE
  8
1-2
  6
CONTINUOUS
 62
    3
 10
1221.148
 20
1472.8217
 11
1221.0209
 21
1472.8111
  0
LINE
  8
1-8
  6
CONTINUOUS
 62
    7
 10
787.50004
 20
1217.9067
 11
1312.5
 21
1217.9067
  0
LINE
  8
1-8
  6
CONTINUOUS
 62
    7
 10
787.50004
 20
1217.9067
 11
787.50004
 21
1256.4326
  0
LINE
  8
1-8
  6
CONTINUOUS
 62
    7
 10
1312.5
 20
1256.4326
 11
1312.5
 21
1217.9067
  0
LINE
  8
1-2
  6
CONTINUOUS
 62
    3
 10
787.50004
 20
1274.3678
 11
1312.5
 21
1274.3676
  0
LINE
  8
1-2
  6
CONTINUOUS
 62
    3
 10
1050
 20
2224.3678
 11
829.58139
 21
2097.1092
  0
LINE
  8
1-2
  6
CONTINUOUS
 62
    3
 10
1050
 20
2224.3678
 11
1270.4568
 21
2097.0869
  0
LINE
  8
1-d
  6
CONTINUOUS
 62
    7
 10
249.99984
 20
229.99993
 11
1850.0005
 21
229.99993
  0
LINE
  8
1-d
  6
CONTINUOUS
 62
    7
 10
249.99984
 20
129.99994
 11
249.99984
 21
309.99992
  0
LINE
  8
1-d
  6
CONTINUOUS
 62
    7
 10
249.99984
 20
129.99994
 11
1850.0005
 21
129.99994
  0
LINE
  8
1-d
  6
CONTINUOUS
 62
    7
 10
1850.0005
 20
309.99992
 11
1850.0005
 21
129.99994
  0
LINE
  8
1-d
  6
CONTINUOUS
 62
    7
 10
249.99984
 20
309.99992
 11
1850.0005
 21
309.99992
  0
LINE
  8
1-d
  6
CONTINUOUS
 62
    7
 10
1050
 20
309.99992
 11
1050
 21
129.99994
  0
LINE
  8
1-d
  6
CONTINUOUS
 62
    7
 10
650.00019
 20
129.99994
 11
650.00019
 21
229.99993
  0
LINE
  8
1-d
  6
CONTINUOUS
 62
    7
 10
1050
 20
229.99993
 11
1050
 21
309.99995
  0
LINE
  8
1-d
  6
CONTINUOUS
 62
    7
 10
849.99987
 20
129.99994
 11
849.99987
 21
229.99993
  0
LINE
  8
1-d
  6
CONTINUOUS
 62
    7
 10
285.00021
 20
129.99994
 11
285.00021
 21
229.99993
  0
LINE
  8
1-d
  6
CONTINUOUS
 62
    7
 10
685.00006
 20
129.99994
 11
685.00006
 21
229.99993
  0
LINE
  8
1-d
  6
CONTINUOUS
 62
    7
 10
884.99999
 20
129.99994
 11
884.99999
 21
229.99993
  0
LINE
  8
1-d
  6
CONTINUOUS
 62
    7
 10
1015.0001
 20
229.99993
 11
1015.0001
 21
309.99995
  0
LINE
  8
1-d
  6
CONTINUOUS
 62
    7
 10
1550.0004
 20
229.99993
 11
1550.0004
 21
309.99995
  0
LINE
  8
1-d
  6
CONTINUOUS
 62
    7
 10
1585.0003
 20
229.99993
 11
1585.0003
 21
309.99995
  0
LINE
  8
1-2
  6
CONTINUOUS
 62
    3
 10
625.0011
 20
1666.0339
 11
1475.0025
 21
1666.0339
  0
LINE
  8
1-2
  6
CONTINUOUS
 62
    3
 10
1356.413
 20
1686.2354
 11
1410.3035
 21
1666.0344
  0
LINE
  8
1-2
  6
CONTINUOUS
 62
    3
 10
1293.979
 20
1674.8786
 11
1254.2719
 21
1686.2354
  0
LINE
  8
1-2
  6
CONTINUOUS
 62
    3
 10
1324.9036
 20
1666.0344
 11
1310.6457
 21
1670.1122
  0
LINE
  8
1-1
  6
CENTER2
 62
    7
 10
1050
 20
2224.3678
 11
1050
 21
1143.2433
  0
LINE
  8
1-8
  6
CONTINUOUS
 62
    7
 10
681.08111
 20
1274.3678
 11
433.33371
 21
1274.3678
  0
ARC
  8
1-2
  6
CONTINUOUS
 62
    3
 10
787.50004
 20
1282.7006
 40
8.3329482
 50
90
 51
270
  0
ARC
  8
1-2
  6
CONTINUOUS
 62
    3
 10
787.4988
 20
1332.7013
 40
8.3329482
 50
90
 51
270
  0
ARC
  8
1-2
  6
CONTINUOUS
 62
    3
 10
1312.5
 20
1282.7006
 40
8.3329482
 50
270
 51
90
  0
ARC
  8
1-2
  6
CONTINUOUS
 62
    3
 10
1312.4988
 20
1332.7013
 40
8.3329482
 50
270
 51
90
  0
ARC
  8
1-2
  6
CONTINUOUS
 62
    3
 10
625.0011
 20
1657.7014
 40
8.3329482
 50
90
 51
270
  0
ARC
  8
1-2
  6
CONTINUOUS
 62
    3
 10
624.99999
 20
1557.7003
 40
8.3329482
 50
90
 51
270
  0
ARC
  8
1-2
  6
CONTINUOUS
 62
    3
 10
1475.0013
 20
1657.7014
 40
8.3329482
 50
270
 51
90
  0
ARC
  8
1-2
  6
CONTINUOUS
 62
    3
 10
1475.0001
 20
1557.7003
 40
8.3329482
 50
270
 51
90
  0
ARC
  8
1-2
  6
CONTINUOUS
 62
    3
 10
624.99986
 20
2007.7013
 40
8.3329482
 50
90
 51
270
  0
ARC
  8
1-2
  6
CONTINUOUS
 62
    3
 10
624.99986
 20
1907.7007
 40
8.3329482
 50
90
 51
270
  0
ARC
  8
1-2
  6
CONTINUOUS
 62
    3
 10
1475.0001
 20
2007.7013
 40
8.3329482
 50
270
 51
90
  0
ARC
  8
1-2
  6
CONTINUOUS
 62
    3
 10
1475.0001
 20
1907.7007
 40
8.3329482
 50
270
 51
90
  0
ARC
  8
1-2
  6
CONTINUOUS
 62
    3
 10
1024.3805
 20
2101.1358
 40
8.7075721
 50
191.71624
 51
348.28375
  0
ARC
  8
1-2
  6
CONTINUOUS
 62
    3
 10
1075.6196
 20
2101.1358
 40
8.7075721
 50
191.71624
 51
348.28375
  0
CIRCLE
  8
1-2
  6
CONTINUOUS
 62
    3
 10
797.68775
 20
1923.7014
 40
5.0000003
  0
CIRCLE
  8
1-2
  6
CONTINUOUS
 62
    3
 10
797.68775
 20
1983.4316
 40
5.0000003
  0
CIRCLE
  8
1-2
  6
CONTINUOUS
 62
    3
 10
797.68775
 20
1641.7007
 40
5.0000003
  0
CIRCLE
  8
1-2
  6
CONTINUOUS
 62
    3
 10
797.68775
 20
1581.9699
 40
5.0000003
  0
CIRCLE
  8
1-2
  6
CONTINUOUS
 62
    3
 10
1302.3122
 20
1923.7014
 40
5.0000003
  0
CIRCLE
  8
1-2
  6
CONTINUOUS
 62
    3
 10
1302.3122
 20
1983.4316
 40
5.0000003
  0
CIRCLE
  8
1-2
  6
CONTINUOUS
 62
    3
 10
1302.3122
 20
1641.7007
 40
5.0000003
  0
CIRCLE
  8
1-2
  6
CONTINUOUS
 62
    3
 10
1302.3122
 20
1581.9699
 40
5.0000003
  0
ARC
  8
1-2
  6
CONTINUOUS
 62
    3
 10
1024.3805
 20
1464.2662
 40
8.7075721
 50
11.716247
 51
168.28375
  0
ARC
  8
1-2
  6
CONTINUOUS
 62
    3
 10
1075.6196
 20
1464.2662
 40
8.7075721
 50
11.716247
 51
168.28375
  0
CIRCLE
  8
1-2
  6
CONTINUOUS
 62
    3
 10
861.61247
 20
1451.3598
 40
5.0000003
  0
CIRCLE
  8
1-2
  6
CONTINUOUS
 62
    3
 10
861.61247
 20
1355.1218
 40
5.0000003
  0
CIRCLE
  8
1-2
  6
CONTINUOUS
 62
    3
 10
1238.3875
 20
1451.3598
 40
5.0000003
  0
CIRCLE
  8
1-2
  6
CONTINUOUS
 62
    3
 10
1238.3875
 20
1355.1218
 40
5.0000003
  0
TEXT
  8
1-8
 10
1006.4597
 20
2383.046
 40
30
 41
1
 50
0
  1
510φ
  0
TEXT
  8
1-8
 10
423.33374
 20
1728.1175
 40
30
 41
1
 50
90
  1
570
  0
TEXT
  8
1-8
 10
1011.0149
 20
1220.4284
 40
30
 41
1
 50
0
  1
315φ
  0
TEXT
  8
1-d
 10
254.99986
 20
137.49993
 40
25
 41
1
 50
0
  1
番
  0
TEXT
  8
1-d
 10
655.00021
 20
197.49991
 40
25
 41
1
 50
0
  1
承
  0
TEXT
  8
1-d
 10
655.00021
 20
137.49993
 40
25
 41
1
 50
0
  1
認
  0
TEXT
  8
1-d
 10
1020.0002
 20
277.49997
 40
25
 41
1
 50
0
  1
尺
  0
TEXT
  8
1-d
 10
1020.0002
 20
237.49996
 40
25
 41
1
 50
0
  1
度
  0
TEXT
  8
1-d
 10
855.00014
 20
197.49991
 40
25
 41
1
 50
0
  1
製
  0
TEXT
  8
1-d
 10
855.00014
 20
137.49993
 40
25
 41
1
 50
0
  1
図
  0
TEXT
  8
1-d
 10
1555.0002
 20
277.49997
 40
25
 41
1
 50
0
  1
日
  0
TEXT
  8
1-d
 10
1555.0002
 20
237.49996
 40
25
 41
1
 50
0
  1
付
  0
TEXT
  8
1-d
 10
1111.4262
 20
203.48221
 40
20
 41
1
 50
0
  1
株式
  0
TEXT
  8
1-d
 10
1111.4262
 20
181.85179
 40
20
 41
1
 50
0
  1
会社
  0
TEXT
  8
1-d
 10
1174.2245
 20
183.24729
 40
40
 41
1
 50
0
  1
スズキベンチレーター
  0
TEXT
  8
1-d
 10
1237.9179
 20
134.02427
 40
20
 41
1
 50
0
  1
TEL(054)296-7000  FAX(054)296-7001
  0
TEXT
  8
1-d
 10
254.99986
 20
197.49991
 40
25
 41
1
 50
0
  1
図
  0
TEXT
  8
1-8
 10
308.12866
 20
186.99175
 40
30
 41
1
 50
0
  1
30-A08a
  0
TEXT
  8
1-d
 10
1084.3491
 20
250.10071
 40
40
 41
1
 50
0
  1
１／６
  0
TEXT
  8
1-d
 10
264.45945
 20
2794.1893
 40
50
 41
1
 50
0
  1
ＡＳ－３００　自然回転  直付型立面
  0
TEXT
  8
1-d
 10
300.5934
 20
249.78554
 40
30
 41
1
 50
0
  1
ＡＳ－３００　自然回転  直付型立面
  0
TEXT
  8
1-d
 10
1235.6794
 20
158.64601
 40
20
 41
1
 50
0
  1
〒421-2114　静岡市葵区安倍口新田１５２番地
  0
POINT
  8
1-8
 62
    2
 10
624.99999
 20
2369.808
  0
POINT
  8
1-8
 62
    2
 10
1475.0013
 20
2369.808
  0
POINT
  8
1-8
 62
    2
 10
433.33371
 20
1274.3673
  0
POINT
  8
1-8
 62
    2
 10
433.33371
 20
2224.3678
  0
POINT
  8
1-8
 62
    2
 10
433.33371
 20
1274.3678
  0
POINT
  8
1-8
 62
    2
 10
787.50004
 20
1217.9067
  0
POINT
  8
1-8
 62
    2
 10
1312.5
 20
1217.9067
  0
ENDSEC
  0
EOF
