  0
SECTION
  2
HEADER
  9
$EXTMIN
 10
0
 20
0
  9
$EXTMAX
 10
4200
 20
2970
  0
ENDSEC
  0
SECTION
  2
TABLES
  0
TABLE
  2
LTYPE
 70
     9
  0
LTYPE
  2
CONTINUOUS
 70
    64
  3
実線
 72
    65
 73
     0
 40
0.0
  0
LTYPE
  2
DASHED1
 70
    64
  3
--  --  --  --  --  --  --  --  
 72
    65
 73
     2
 40
2.5
 49
1.25
 49
-1.25
  0
LTYPE
  2
DASHED2
 70
    64
  3
----    ----    ----    ----    
 72
    65
 73
     2
 40
5.0
 49
2.5
 49
-2.5
  0
LTYPE
  2
DASHED3
 70
    64
  3
------  ------  ------  ------  
 72
    65
 73
     2
 40
5.0
 49
3.75
 49
-1.25
  0
LTYPE
  2
CENTER1
 70
    64
  3
----- - ----- - ----- - ----- - 
 72
    65
 73
     4
 40
10.0
 49
6.25
 49
-1.25
 49
1.25
 49
-1.25
  0
LTYPE
  2
CENTER2
 70
    64
  3
----------  --  ----------  --  
 72
    65
 73
     4
 40
20.0
 49
12.5
 49
-2.5
 49
2.5
 49
-2.5
  0
LTYPE
  2
PHANTOM1
 70
    64
  3
--- - - --- - - --- - - --- - - 
 72
    65
 73
     6
 40
10.0
 49
3.25
 49
-1.25
 49
1.25
 49
-1.25
 49
1.25
 49
-1.25
  0
LTYPE
  2
PHANTOM2
 70
    64
  3
--------  -  -  --------  -  -  
 72
    65
 73
     6
 40
20.0
 49
10.0
 49
-2.5
 49
1.25
 49
-2.5
 49
1.25
 49
-2.5
  0
LTYPE
  2
DOT
 70
    64
  3
-   -   -   -   -   -   -   -   
 72
    65
 73
     2
 40
2.5
 49
0.625
 49
-1.875
  0
ENDTAB
  0
TABLE
  2
STYLE
 70
    1
  0
STYLE
  2
STANDARD
 70
    64
 40
0.0
 41
1.0
 42
0.0
 50
0.0
 71
     0
  3
TXT
  4
BIGFONT
  0
ENDTAB
  0
TABLE
  2
LAYER
 70
    5
  0
LAYER
  2
0-1
 70
   64
 62
    7
  6
CONTINUOUS
  0
LAYER
  2
0-2
 70
   64
 62
    7
  6
CONTINUOUS
  0
LAYER
  2
0-8
 70
   64
 62
    7
  6
CONTINUOUS
  0
LAYER
  2
0-d
 70
   64
 62
    7
  6
CONTINUOUS
  0
LAYER
  2
ADD_LINE
 70
   64
 62
    7
  6
CONTINUOUS
  0
ENDTAB
  0
ENDSEC
  0
SECTION
  2
ENTITIES
  0
LINE
  8
0-8
  6
CONTINUOUS
 62
    7
 10
795
 20
2644.9653
 11
1305.0009
 21
2644.9653
  0
LINE
  8
0-d
  6
CONTINUOUS
 62
    7
 10
250.00003
 20
2757.7013
 11
1850.0001
 21
2757.7013
  0
LINE
  8
0-d
  6
CONTINUOUS
 62
    7
 10
250.00003
 20
2767.7014
 11
1850.0001
 21
2767.7014
  0
LINE
  8
0-8
  6
CONTINUOUS
 62
    7
 10
1305.0009
 20
2512.2999
 11
1305.0009
 21
2644.9653
  0
LINE
  8
0-8
  6
CONTINUOUS
 62
    7
 10
795
 20
2644.9653
 11
795
 21
2512.2999
  0
LINE
  8
0-2
  6
CONTINUOUS
 62
    3
 10
795.00068
 20
2212.7012
 11
1305.0015
 21
2212.7012
  0
LINE
  8
0-2
  6
CONTINUOUS
 62
    3
 10
795
 20
2162.7006
 11
1305.0009
 21
2162.7006
  0
LINE
  8
0-2
  6
CONTINUOUS
 62
    3
 10
795.00068
 20
2212.7012
 11
795
 21
2162.7003
  0
LINE
  8
0-2
  6
CONTINUOUS
 62
    3
 10
892.49927
 20
2017.7013
 11
1207.5
 21
2017.7012
  0
LINE
  8
0-2
  6
CONTINUOUS
 62
    3
 10
892.49927
 20
2027.7011
 11
1207.5
 21
2027.701
  0
LINE
  8
0-2
  6
CONTINUOUS
 62
    3
 10
892.50002
 20
1997.7008
 11
1207.5008
 21
1997.7008
  0
LINE
  8
0-2
  6
CONTINUOUS
 62
    3
 10
892.49927
 20
2017.7013
 11
892.50002
 21
1997.7005
  0
LINE
  8
0-2
  6
CONTINUOUS
 62
    3
 10
1207.4993
 20
2017.7012
 11
1207.5
 21
1997.7005
  0
LINE
  8
0-2
  6
CONTINUOUS
 62
    3
 10
892.50002
 20
2102.7009
 11
892.49927
 21
2027.7011
  0
LINE
  8
0-2
  6
CONTINUOUS
 62
    3
 10
1207.5
 20
2102.7009
 11
1207.4993
 21
2027.701
  0
LINE
  8
0-2
  6
CONTINUOUS
 62
    3
 10
1207.4993
 20
2017.7012
 11
1207.5
 21
1997.7005
  0
LINE
  8
0-2
  6
CONTINUOUS
 62
    3
 10
1305.0007
 20
2212.7012
 11
1305.0001
 21
2162.7003
  0
LINE
  8
0-2
  6
CONTINUOUS
 62
    3
 10
795
 20
2152.7008
 11
1305.0009
 21
2152.7008
  0
LINE
  8
0-2
  6
CONTINUOUS
 62
    3
 10
794.99994
 20
2422.7009
 11
1305.0007
 21
2422.7009
  0
LINE
  8
0-2
  6
CONTINUOUS
 62
    3
 10
794.99994
 20
2432.701
 11
1305.0007
 21
2432.701
  0
LINE
  8
0-2
  6
CONTINUOUS
 62
    3
 10
794.99994
 20
2372.7008
 11
1305.0007
 21
2372.7008
  0
LINE
  8
0-2
  6
CONTINUOUS
 62
    3
 10
794.99994
 20
2422.7009
 11
794.99994
 21
2372.7005
  0
LINE
  8
0-2
  6
CONTINUOUS
 62
    3
 10
1305
 20
2422.7009
 11
1305
 21
2372.7005
  0
LINE
  8
0-2
  6
CONTINUOUS
 62
    3
 10
794.99994
 20
2362.701
 11
1305.0007
 21
2362.701
  0
LINE
  8
0-8
  6
CONTINUOUS
 62
    7
 10
718.63196
 20
1987.7007
 11
580.00021
 21
1987.7007
  0
LINE
  8
0-8
  6
CONTINUOUS
 62
    7
 10
761.13105
 20
2557.7011
 11
580.00021
 21
2557.7011
  0
LINE
  8
0-2
  6
CONTINUOUS
 62
    3
 10
795
 20
2152.7008
 11
844.99998
 21
2102.7009
  0
LINE
  8
0-2
  6
CONTINUOUS
 62
    3
 10
1305
 20
2432.701
 11
1255.0002
 21
2482.7009
  0
LINE
  8
0-2
  6
CONTINUOUS
 62
    3
 10
794.99994
 20
2432.701
 11
844.99986
 21
2482.7009
  0
LINE
  8
0-2
  6
CONTINUOUS
 62
    3
 10
1005.5763
 20
2478.5682
 11
1005.9879
 21
2478.6783
  0
LINE
  8
0-2
  6
CONTINUOUS
 62
    3
 10
1005.9879
 20
2478.6783
 11
1006.3744
 21
2478.8282
  0
LINE
  8
0-2
  6
CONTINUOUS
 62
    3
 10
1006.3744
 20
2478.8282
 11
1006.7363
 21
2479.0148
  0
LINE
  8
0-2
  6
CONTINUOUS
 62
    3
 10
1006.7363
 20
2479.0148
 11
1007.0741
 21
2479.2355
  0
LINE
  8
0-2
  6
CONTINUOUS
 62
    3
 10
1007.0741
 20
2479.2355
 11
1007.3881
 21
2479.4879
  0
LINE
  8
0-2
  6
CONTINUOUS
 62
    3
 10
1007.3881
 20
2479.4879
 11
1007.6789
 21
2479.7685
  0
LINE
  8
0-2
  6
CONTINUOUS
 62
    3
 10
1007.6789
 20
2479.7685
 11
1007.9469
 21
2480.0746
  0
LINE
  8
0-2
  6
CONTINUOUS
 62
    3
 10
1007.9469
 20
2480.0746
 11
1008.1926
 21
2480.4039
  0
LINE
  8
0-2
  6
CONTINUOUS
 62
    3
 10
1008.1926
 20
2480.4039
 11
1008.4163
 21
2480.7528
  0
LINE
  8
0-2
  6
CONTINUOUS
 62
    3
 10
1008.4163
 20
2480.7528
 11
1008.6186
 21
2481.1193
  0
LINE
  8
0-2
  6
CONTINUOUS
 62
    3
 10
1008.6186
 20
2481.1193
 11
1008.7998
 21
2481.5001
  0
LINE
  8
0-2
  6
CONTINUOUS
 62
    3
 10
1008.7998
 20
2481.5001
 11
1008.9606
 21
2481.8925
  0
LINE
  8
0-2
  6
CONTINUOUS
 62
    3
 10
1008.9606
 20
2481.8925
 11
1009.1013
 21
2482.2939
  0
LINE
  8
0-2
  6
CONTINUOUS
 62
    3
 10
1009.1013
 20
2482.2939
 11
1009.2224
 21
2482.7009
  0
LINE
  8
0-2
  6
CONTINUOUS
 62
    3
 10
1003.3159
 20
2478.5461
 11
1002.84
 21
2478.6991
  0
LINE
  8
0-2
  6
CONTINUOUS
 62
    3
 10
1002.84
 20
2478.6991
 11
1002.3935
 21
2478.8797
  0
LINE
  8
0-2
  6
CONTINUOUS
 62
    3
 10
1002.3935
 20
2478.8797
 11
1001.976
 21
2479.0868
  0
LINE
  8
0-2
  6
CONTINUOUS
 62
    3
 10
1001.976
 20
2479.0868
 11
1001.5873
 21
2479.3186
  0
LINE
  8
0-2
  6
CONTINUOUS
 62
    3
 10
1001.5873
 20
2479.3186
 11
1001.227
 21
2479.574
  0
LINE
  8
0-2
  6
CONTINUOUS
 62
    3
 10
1001.227
 20
2479.574
 11
1000.8948
 21
2479.8516
  0
LINE
  8
0-2
  6
CONTINUOUS
 62
    3
 10
1000.8948
 20
2479.8516
 11
1000.5905
 21
2480.15
  0
LINE
  8
0-2
  6
CONTINUOUS
 62
    3
 10
1000.5905
 20
2480.15
 11
1000.3137
 21
2480.4678
  0
LINE
  8
0-2
  6
CONTINUOUS
 62
    3
 10
1000.3137
 20
2480.4678
 11
1000.064
 21
2480.8033
  0
LINE
  8
0-2
  6
CONTINUOUS
 62
    3
 10
1000.064
 20
2480.8033
 11
999.84127
 21
2481.1551
  0
LINE
  8
0-2
  6
CONTINUOUS
 62
    3
 10
999.84127
 20
2481.1551
 11
999.64505
 21
2481.5226
  0
LINE
  8
0-2
  6
CONTINUOUS
 62
    3
 10
999.64505
 20
2481.5226
 11
999.475
 21
2481.9034
  0
LINE
  8
0-2
  6
CONTINUOUS
 62
    3
 10
999.475
 20
2481.9034
 11
999.33093
 21
2482.2968
  0
LINE
  8
0-2
  6
CONTINUOUS
 62
    3
 10
999.33093
 20
2482.2968
 11
999.2124
 21
2482.7009
  0
LINE
  8
0-2
  6
CONTINUOUS
 62
    3
 10
979.58343
 20
2482.7009
 11
979.12245
 21
2482.0296
  0
LINE
  8
0-2
  6
CONTINUOUS
 62
    3
 10
979.12245
 20
2482.0296
 11
978.65615
 21
2481.4328
  0
LINE
  8
0-2
  6
CONTINUOUS
 62
    3
 10
978.65615
 20
2481.4328
 11
978.18633
 21
2480.9057
  0
LINE
  8
0-2
  6
CONTINUOUS
 62
    3
 10
978.18633
 20
2480.9057
 11
977.71483
 21
2480.4445
  0
LINE
  8
0-2
  6
CONTINUOUS
 62
    3
 10
977.71483
 20
2480.4445
 11
977.24352
 21
2480.0449
  0
LINE
  8
0-2
  6
CONTINUOUS
 62
    3
 10
977.24352
 20
2480.0449
 11
976.77413
 21
2479.7032
  0
LINE
  8
0-2
  6
CONTINUOUS
 62
    3
 10
976.77413
 20
2479.7032
 11
976.30857
 21
2479.4149
  0
LINE
  8
0-2
  6
CONTINUOUS
 62
    3
 10
976.30857
 20
2479.4149
 11
975.84864
 21
2479.1759
  0
LINE
  8
0-2
  6
CONTINUOUS
 62
    3
 10
975.84864
 20
2479.1759
 11
975.3962
 21
2478.9819
  0
LINE
  8
0-2
  6
CONTINUOUS
 62
    3
 10
975.3962
 20
2478.9819
 11
974.95303
 21
2478.8292
  0
LINE
  8
0-2
  6
CONTINUOUS
 62
    3
 10
974.95303
 20
2478.8292
 11
974.521
 21
2478.7134
  0
LINE
  8
0-2
  6
CONTINUOUS
 62
    3
 10
974.521
 20
2478.7134
 11
974.10202
 21
2478.6303
  0
LINE
  8
0-2
  6
CONTINUOUS
 62
    3
 10
974.10202
 20
2478.6303
 11
973.69777
 21
2478.5758
  0
LINE
  8
0-2
  6
CONTINUOUS
 62
    3
 10
973.69777
 20
2478.5758
 11
973.31022
 21
2478.5461
  0
LINE
  8
0-2
  6
CONTINUOUS
 62
    3
 10
970.01172
 20
2482.7009
 11
970.02551
 21
2482.2181
  0
LINE
  8
0-2
  6
CONTINUOUS
 62
    3
 10
970.02551
 20
2482.2181
 11
970.06721
 21
2481.7718
  0
LINE
  8
0-2
  6
CONTINUOUS
 62
    3
 10
970.06721
 20
2481.7718
 11
970.13828
 21
2481.3605
  0
LINE
  8
0-2
  6
CONTINUOUS
 62
    3
 10
970.13828
 20
2481.3605
 11
970.24042
 21
2480.9814
  0
LINE
  8
0-2
  6
CONTINUOUS
 62
    3
 10
970.24042
 20
2480.9814
 11
970.37521
 21
2480.6333
  0
LINE
  8
0-2
  6
CONTINUOUS
 62
    3
 10
970.37521
 20
2480.6333
 11
970.54402
 21
2480.3138
  0
LINE
  8
0-2
  6
CONTINUOUS
 62
    3
 10
970.54402
 20
2480.3138
 11
970.74853
 21
2480.0209
  0
LINE
  8
0-2
  6
CONTINUOUS
 62
    3
 10
970.74853
 20
2480.0209
 11
970.99028
 21
2479.7524
  0
LINE
  8
0-2
  6
CONTINUOUS
 62
    3
 10
970.99028
 20
2479.7524
 11
971.27082
 21
2479.5067
  0
LINE
  8
0-2
  6
CONTINUOUS
 62
    3
 10
971.27082
 20
2479.5067
 11
971.59175
 21
2479.2815
  0
LINE
  8
0-2
  6
CONTINUOUS
 62
    3
 10
971.59175
 20
2479.2815
 11
971.95462
 21
2479.0749
  0
LINE
  8
0-2
  6
CONTINUOUS
 62
    3
 10
971.95462
 20
2479.0749
 11
972.36091
 21
2478.8846
  0
LINE
  8
0-2
  6
CONTINUOUS
 62
    3
 10
972.36091
 20
2478.8846
 11
972.81231
 21
2478.709
  0
LINE
  8
0-2
  6
CONTINUOUS
 62
    3
 10
972.81231
 20
2478.709
 11
973.31022
 21
2478.5461
  0
LINE
  8
0-2
  6
CONTINUOUS
 62
    3
 10
942.5425
 20
2482.7009
 11
942.77756
 21
2482.134
  0
LINE
  8
0-2
  6
CONTINUOUS
 62
    3
 10
942.77756
 20
2482.134
 11
943.0224
 21
2481.6193
  0
LINE
  8
0-2
  6
CONTINUOUS
 62
    3
 10
943.0224
 20
2481.6193
 11
943.27677
 21
2481.1551
  0
LINE
  8
0-2
  6
CONTINUOUS
 62
    3
 10
943.27677
 20
2481.1551
 11
943.54042
 21
2480.7385
  0
LINE
  8
0-2
  6
CONTINUOUS
 62
    3
 10
943.54042
 20
2480.7385
 11
943.8131
 21
2480.367
  0
LINE
  8
0-2
  6
CONTINUOUS
 62
    3
 10
943.8131
 20
2480.367
 11
944.09456
 21
2480.0382
  0
LINE
  8
0-2
  6
CONTINUOUS
 62
    3
 10
944.09456
 20
2480.0382
 11
944.3845
 21
2479.7492
  0
LINE
  8
0-2
  6
CONTINUOUS
 62
    3
 10
944.3845
 20
2479.7492
 11
944.68285
 21
2479.4978
  0
LINE
  8
0-2
  6
CONTINUOUS
 62
    3
 10
944.68285
 20
2479.4978
 11
944.98912
 21
2479.281
  0
LINE
  8
0-2
  6
CONTINUOUS
 62
    3
 10
944.98912
 20
2479.281
 11
945.30331
 21
2479.0972
  0
LINE
  8
0-2
  6
CONTINUOUS
 62
    3
 10
945.30331
 20
2479.0972
 11
945.62504
 21
2478.943
  0
LINE
  8
0-2
  6
CONTINUOUS
 62
    3
 10
945.62504
 20
2478.943
 11
945.95413
 21
2478.8163
  0
LINE
  8
0-2
  6
CONTINUOUS
 62
    3
 10
945.95413
 20
2478.8163
 11
946.29022
 21
2478.7144
  0
LINE
  8
0-2
  6
CONTINUOUS
 62
    3
 10
946.29022
 20
2478.7144
 11
946.63323
 21
2478.6347
  0
LINE
  8
0-2
  6
CONTINUOUS
 62
    3
 10
947.38743
 20
2478.6347
 11
947.7451
 21
2478.7025
  0
LINE
  8
0-2
  6
CONTINUOUS
 62
    3
 10
947.7451
 20
2478.7025
 11
948.09993
 21
2478.8109
  0
LINE
  8
0-2
  6
CONTINUOUS
 62
    3
 10
948.09993
 20
2478.8109
 11
948.45179
 21
2478.9589
  0
LINE
  8
0-2
  6
CONTINUOUS
 62
    3
 10
948.45179
 20
2478.9589
 11
948.80087
 21
2479.1472
  0
LINE
  8
0-2
  6
CONTINUOUS
 62
    3
 10
948.80087
 20
2479.1472
 11
949.14691
 21
2479.3756
  0
LINE
  8
0-2
  6
CONTINUOUS
 62
    3
 10
949.14691
 20
2479.3756
 11
949.49011
 21
2479.6438
  0
LINE
  8
0-2
  6
CONTINUOUS
 62
    3
 10
949.49011
 20
2479.6438
 11
949.8304
 21
2479.9526
  0
LINE
  8
0-2
  6
CONTINUOUS
 62
    3
 10
949.8304
 20
2479.9526
 11
950.16785
 21
2480.3015
  0
LINE
  8
0-2
  6
CONTINUOUS
 62
    3
 10
950.16785
 20
2480.3015
 11
950.50233
 21
2480.69
  0
LINE
  8
0-2
  6
CONTINUOUS
 62
    3
 10
917.39939
 20
2482.7009
 11
917.46744
 21
2482.2686
  0
LINE
  8
0-2
  6
CONTINUOUS
 62
    3
 10
917.46744
 20
2482.2686
 11
917.56394
 21
2481.8663
  0
LINE
  8
0-2
  6
CONTINUOUS
 62
    3
 10
917.56394
 20
2481.8663
 11
917.68679
 21
2481.4924
  0
LINE
  8
0-2
  6
CONTINUOUS
 62
    3
 10
917.68679
 20
2481.4924
 11
917.83365
 21
2481.1462
  0
LINE
  8
0-2
  6
CONTINUOUS
 62
    3
 10
917.83365
 20
2481.1462
 11
918.00234
 21
2480.826
  0
LINE
  8
0-2
  6
CONTINUOUS
 62
    3
 10
918.00234
 20
2480.826
 11
918.19095
 21
2480.5311
  0
LINE
  8
0-2
  6
CONTINUOUS
 62
    3
 10
918.19095
 20
2480.5311
 11
918.39756
 21
2480.2604
  0
LINE
  8
0-2
  6
CONTINUOUS
 62
    3
 10
918.39756
 20
2480.2604
 11
918.62038
 21
2480.013
  0
LINE
  8
0-2
  6
CONTINUOUS
 62
    3
 10
918.62038
 20
2480.013
 11
918.85786
 21
2479.7878
  0
LINE
  8
0-2
  6
CONTINUOUS
 62
    3
 10
918.85786
 20
2479.7878
 11
919.10821
 21
2479.5844
  0
LINE
  8
0-2
  6
CONTINUOUS
 62
    3
 10
919.10821
 20
2479.5844
 11
919.37013
 21
2479.402
  0
LINE
  8
0-2
  6
CONTINUOUS
 62
    3
 10
919.37013
 20
2479.402
 11
919.64231
 21
2479.24
  0
LINE
  8
0-2
  6
CONTINUOUS
 62
    3
 10
919.64231
 20
2479.24
 11
919.9234
 21
2479.0974
  0
LINE
  8
0-2
  6
CONTINUOUS
 62
    3
 10
919.9234
 20
2479.0974
 11
920.21241
 21
2478.9742
  0
LINE
  8
0-2
  6
CONTINUOUS
 62
    3
 10
920.21241
 20
2478.9742
 11
920.50829
 21
2478.8698
  0
LINE
  8
0-2
  6
CONTINUOUS
 62
    3
 10
920.50829
 20
2478.8698
 11
920.81023
 21
2478.7837
  0
LINE
  8
0-2
  6
CONTINUOUS
 62
    3
 10
920.81023
 20
2478.7837
 11
921.1173
 21
2478.7161
  0
LINE
  8
0-2
  6
CONTINUOUS
 62
    3
 10
921.1173
 20
2478.7161
 11
921.42895
 21
2478.6666
  0
LINE
  8
0-2
  6
CONTINUOUS
 62
    3
 10
921.42895
 20
2478.6666
 11
921.74468
 21
2478.6347
  0
LINE
  8
0-2
  6
CONTINUOUS
 62
    3
 10
921.82436
 20
2478.6384
 11
922.00214
 21
2478.656
  0
LINE
  8
0-2
  6
CONTINUOUS
 62
    3
 10
922.00214
 20
2478.656
 11
922.17684
 21
2478.6812
  0
LINE
  8
0-2
  6
CONTINUOUS
 62
    3
 10
922.17684
 20
2478.6812
 11
922.34844
 21
2478.7144
  0
LINE
  8
0-2
  6
CONTINUOUS
 62
    3
 10
922.34844
 20
2478.7144
 11
922.517
 21
2478.755
  0
LINE
  8
0-2
  6
CONTINUOUS
 62
    3
 10
922.517
 20
2478.755
 11
922.68254
 21
2478.803
  0
LINE
  8
0-2
  6
CONTINUOUS
 62
    3
 10
922.68254
 20
2478.803
 11
922.84505
 21
2478.8589
  0
LINE
  8
0-2
  6
CONTINUOUS
 62
    3
 10
922.84505
 20
2478.8589
 11
923.0044
 21
2478.9225
  0
LINE
  8
0-2
  6
CONTINUOUS
 62
    3
 10
923.0044
 20
2478.9225
 11
923.16072
 21
2478.9938
  0
LINE
  8
0-2
  6
CONTINUOUS
 62
    3
 10
923.16072
 20
2478.9938
 11
923.31395
 21
2479.0727
  0
LINE
  8
0-2
  6
CONTINUOUS
 62
    3
 10
849.9807
 20
2482.7009
 11
850.04157
 21
2482.2464
  0
LINE
  8
0-2
  6
CONTINUOUS
 62
    3
 10
850.04157
 20
2482.2464
 11
850.1059
 21
2481.8307
  0
LINE
  8
0-2
  6
CONTINUOUS
 62
    3
 10
850.1059
 20
2481.8307
 11
850.17389
 21
2481.4545
  0
LINE
  8
0-2
  6
CONTINUOUS
 62
    3
 10
850.17389
 20
2481.4545
 11
850.24533
 21
2481.1173
  0
LINE
  8
0-2
  6
CONTINUOUS
 62
    3
 10
850.24533
 20
2481.1173
 11
850.32031
 21
2480.8196
  0
LINE
  8
0-2
  6
CONTINUOUS
 62
    3
 10
850.32031
 20
2480.8196
 11
850.39887
 21
2480.561
  0
LINE
  8
0-2
  6
CONTINUOUS
 62
    3
 10
850.39887
 20
2480.561
 11
850.4809
 21
2480.3416
  0
LINE
  8
0-2
  6
CONTINUOUS
 62
    3
 10
850.4809
 20
2480.3416
 11
850.56651
 21
2480.1617
  0
LINE
  8
0-2
  6
CONTINUOUS
 62
    3
 10
850.56651
 20
2480.1617
 11
850.65559
 21
2480.0209
  0
LINE
  8
0-2
  6
CONTINUOUS
 62
    3
 10
861.04849
 20
2482.7009
 11
861.08221
 21
2482.3409
  0
LINE
  8
0-2
  6
CONTINUOUS
 62
    3
 10
861.08221
 20
2482.3409
 11
861.13788
 21
2482.0004
  0
LINE
  8
0-2
  6
CONTINUOUS
 62
    3
 10
861.13788
 20
2482.0004
 11
861.21298
 21
2481.6795
  0
LINE
  8
0-2
  6
CONTINUOUS
 62
    3
 10
861.21298
 20
2481.6795
 11
861.30565
 21
2481.3783
  0
LINE
  8
0-2
  6
CONTINUOUS
 62
    3
 10
861.30565
 20
2481.3783
 11
861.41365
 21
2481.097
  0
LINE
  8
0-2
  6
CONTINUOUS
 62
    3
 10
861.41365
 20
2481.097
 11
861.5349
 21
2480.8359
  0
LINE
  8
0-2
  6
CONTINUOUS
 62
    3
 10
861.5349
 20
2480.8359
 11
861.66716
 21
2480.5944
  0
LINE
  8
0-2
  6
CONTINUOUS
 62
    3
 10
861.66716
 20
2480.5944
 11
861.8082
 21
2480.3735
  0
LINE
  8
0-2
  6
CONTINUOUS
 62
    3
 10
861.8082
 20
2480.3735
 11
861.95592
 21
2480.1723
  0
LINE
  8
0-2
  6
CONTINUOUS
 62
    3
 10
861.95592
 20
2480.1723
 11
862.10816
 21
2479.9919
  0
LINE
  8
0-2
  6
CONTINUOUS
 62
    3
 10
862.10816
 20
2479.9919
 11
862.26274
 21
2479.8321
  0
LINE
  8
0-2
  6
CONTINUOUS
 62
    3
 10
862.26274
 20
2479.8321
 11
862.41764
 21
2479.6925
  0
LINE
  8
0-2
  6
CONTINUOUS
 62
    3
 10
862.41764
 20
2479.6925
 11
862.57056
 21
2479.5738
  0
LINE
  8
0-2
  6
CONTINUOUS
 62
    3
 10
862.57056
 20
2479.5738
 11
862.71939
 21
2479.4758
  0
LINE
  8
0-2
  6
CONTINUOUS
 62
    3
 10
876.2066
 20
2482.7009
 11
876.30706
 21
2482.3
  0
LINE
  8
0-2
  6
CONTINUOUS
 62
    3
 10
876.30706
 20
2482.3
 11
876.42948
 21
2481.9249
  0
LINE
  8
0-2
  6
CONTINUOUS
 62
    3
 10
876.42948
 20
2481.9249
 11
876.57281
 21
2481.5748
  0
LINE
  8
0-2
  6
CONTINUOUS
 62
    3
 10
876.57281
 20
2481.5748
 11
876.73624
 21
2481.2502
  0
LINE
  8
0-2
  6
CONTINUOUS
 62
    3
 10
876.73624
 20
2481.2502
 11
876.91885
 21
2480.95
  0
LINE
  8
0-2
  6
CONTINUOUS
 62
    3
 10
876.91885
 20
2480.95
 11
877.11971
 21
2480.6746
  0
LINE
  8
0-2
  6
CONTINUOUS
 62
    3
 10
877.11971
 20
2480.6746
 11
877.33808
 21
2480.4242
  0
LINE
  8
0-2
  6
CONTINUOUS
 62
    3
 10
877.33808
 20
2480.4242
 11
877.57302
 21
2480.1975
  0
LINE
  8
0-2
  6
CONTINUOUS
 62
    3
 10
877.57302
 20
2480.1975
 11
877.82362
 21
2479.9956
  0
LINE
  8
0-2
  6
CONTINUOUS
 62
    3
 10
877.82362
 20
2479.9956
 11
878.08912
 21
2479.817
  0
LINE
  8
0-2
  6
CONTINUOUS
 62
    3
 10
878.08912
 20
2479.817
 11
878.36848
 21
2479.6626
  0
LINE
  8
0-2
  6
CONTINUOUS
 62
    3
 10
878.36848
 20
2479.6626
 11
878.66095
 21
2479.5314
  0
LINE
  8
0-2
  6
CONTINUOUS
 62
    3
 10
878.66095
 20
2479.5314
 11
878.96555
 21
2479.4241
  0
LINE
  8
0-2
  6
CONTINUOUS
 62
    3
 10
878.96555
 20
2479.4241
 11
879.28153
 21
2479.3394
  0
LINE
  8
0-2
  6
CONTINUOUS
 62
    3
 10
895.11818
 20
2482.7009
 11
895.27023
 21
2482.281
  0
LINE
  8
0-2
  6
CONTINUOUS
 62
    3
 10
895.27023
 20
2482.281
 11
895.44826
 21
2481.8915
  0
LINE
  8
0-2
  6
CONTINUOUS
 62
    3
 10
895.44826
 20
2481.8915
 11
895.65017
 21
2481.533
  0
LINE
  8
0-2
  6
CONTINUOUS
 62
    3
 10
895.65017
 20
2481.533
 11
895.87386
 21
2481.2051
  0
LINE
  8
0-2
  6
CONTINUOUS
 62
    3
 10
895.87386
 20
2481.2051
 11
896.11709
 21
2480.9084
  0
LINE
  8
0-2
  6
CONTINUOUS
 62
    3
 10
896.11709
 20
2480.9084
 11
896.37752
 21
2480.6424
  0
LINE
  8
0-2
  6
CONTINUOUS
 62
    3
 10
896.37752
 20
2480.6424
 11
896.65305
 21
2480.4069
  0
LINE
  8
0-2
  6
CONTINUOUS
 62
    3
 10
896.65305
 20
2480.4069
 11
896.94107
 21
2480.2018
  0
LINE
  8
0-2
  6
CONTINUOUS
 62
    3
 10
896.94107
 20
2480.2018
 11
897.23935
 21
2480.0263
  0
LINE
  8
0-2
  6
CONTINUOUS
 62
    3
 10
897.23935
 20
2480.0263
 11
897.54531
 21
2479.8806
  0
LINE
  8
0-2
  6
CONTINUOUS
 62
    3
 10
897.54531
 20
2479.8806
 11
897.85647
 21
2479.7635
  0
LINE
  8
0-2
  6
CONTINUOUS
 62
    3
 10
897.85647
 20
2479.7635
 11
898.1701
 21
2479.674
  0
LINE
  8
0-2
  6
CONTINUOUS
 62
    3
 10
898.1701
 20
2479.674
 11
898.48361
 21
2479.6121
  0
LINE
  8
0-2
  6
CONTINUOUS
 62
    3
 10
898.48361
 20
2479.6121
 11
898.79433
 21
2479.5765
  0
LINE
  8
0-2
  6
CONTINUOUS
 62
    3
 10
898.79433
 20
2479.5765
 11
899.09936
 21
2479.5656
  0
LINE
  8
0-2
  6
CONTINUOUS
 62
    3
 10
899.09936
 20
2479.5656
 11
899.39592
 21
2479.579
  0
LINE
  8
0-2
  6
CONTINUOUS
 62
    3
 10
899.39592
 20
2479.579
 11
899.68121
 21
2479.6146
  0
LINE
  8
0-2
  6
CONTINUOUS
 62
    3
 10
899.68121
 20
2479.6146
 11
899.95216
 21
2479.6715
  0
LINE
  8
0-2
  6
CONTINUOUS
 62
    3
 10
899.95216
 20
2479.6715
 11
900.20579
 21
2479.7482
  0
LINE
  8
0-2
  6
CONTINUOUS
 62
    3
 10
849.9807
 20
2482.7009
 11
844.99986
 21
2482.7009
  0
LINE
  8
0-2
  6
CONTINUOUS
 62
    3
 10
801.19546
 20
2432.701
 11
849.9807
 21
2482.7009
  0
LINE
  8
0-2
  6
CONTINUOUS
 62
    3
 10
853.1989
 20
2482.7009
 11
805.19854
 21
2432.701
  0
LINE
  8
0-2
  6
CONTINUOUS
 62
    3
 10
814.96276
 20
2432.701
 11
861.04849
 21
2482.7009
  0
LINE
  8
0-2
  6
CONTINUOUS
 62
    3
 10
861.04849
 20
2482.7009
 11
853.1989
 21
2482.7009
  0
LINE
  8
0-2
  6
CONTINUOUS
 62
    3
 10
865.66121
 20
2482.7009
 11
820.7004
 21
2432.701
  0
LINE
  8
0-2
  6
CONTINUOUS
 62
    3
 10
876.2066
 20
2482.7009
 11
865.66121
 21
2482.7009
  0
LINE
  8
0-2
  6
CONTINUOUS
 62
    3
 10
833.81793
 20
2432.701
 11
876.2066
 21
2482.7009
  0
LINE
  8
0-2
  6
CONTINUOUS
 62
    3
 10
882.11398
 20
2482.7009
 11
841.16602
 21
2432.701
  0
LINE
  8
0-2
  6
CONTINUOUS
 62
    3
 10
895.12665
 20
2482.7009
 11
882.11398
 21
2482.7009
  0
LINE
  8
0-2
  6
CONTINUOUS
 62
    3
 10
857.35267
 20
2432.701
 11
895.12665
 21
2482.7009
  0
LINE
  8
0-2
  6
CONTINUOUS
 62
    3
 10
902.20083
 20
2482.7009
 11
866.15225
 21
2432.701
  0
LINE
  8
0-2
  6
CONTINUOUS
 62
    3
 10
917.39939
 20
2482.7009
 11
902.20083
 21
2482.7009
  0
LINE
  8
0-2
  6
CONTINUOUS
 62
    3
 10
885.05777
 20
2432.701
 11
917.39939
 21
2482.7009
  0
LINE
  8
0-2
  6
CONTINUOUS
 62
    3
 10
925.48721
 20
2482.7009
 11
895.11818
 21
2432.701
  0
LINE
  8
0-2
  6
CONTINUOUS
 62
    3
 10
942.5425
 20
2482.7009
 11
925.48721
 21
2482.7009
  0
LINE
  8
0-2
  6
CONTINUOUS
 62
    3
 10
916.3333
 20
2432.701
 11
942.5425
 21
2482.7009
  0
LINE
  8
0-2
  6
CONTINUOUS
 62
    3
 10
951.46883
 20
2482.7009
 11
927.43685
 21
2432.701
  0
LINE
  8
0-2
  6
CONTINUOUS
 62
    3
 10
970.01172
 20
2482.7009
 11
951.46883
 21
2482.7009
  0
LINE
  8
0-2
  6
CONTINUOUS
 62
    3
 10
950.50233
 20
2432.701
 11
970.01172
 21
2482.7009
  0
LINE
  8
0-2
  6
CONTINUOUS
 62
    3
 10
962.40857
 20
2432.701
 11
979.58343
 21
2482.7009
  0
LINE
  8
0-2
  6
CONTINUOUS
 62
    3
 10
999.2124
 20
2482.7009
 11
979.58343
 21
2482.7009
  0
LINE
  8
0-2
  6
CONTINUOUS
 62
    3
 10
999.2124
 20
2482.7009
 11
986.82513
 21
2432.701
  0
LINE
  8
0-2
  6
CONTINUOUS
 62
    3
 10
999.27655
 20
2432.701
 11
1009.2224
 21
2482.7009
  0
LINE
  8
0-2
  6
CONTINUOUS
 62
    3
 10
1029.5125
 20
2482.7009
 11
1009.2224
 21
2482.7009
  0
LINE
  8
0-2
  6
CONTINUOUS
 62
    3
 10
1029.5125
 20
2482.7009
 11
1024.5156
 21
2432.701
  0
LINE
  8
0-2
  6
CONTINUOUS
 62
    3
 10
1039.7439
 20
2482.7009
 11
1037.2424
 21
2432.701
  0
LINE
  8
0-2
  6
CONTINUOUS
 62
    3
 10
1050
 20
2482.7009
 11
1039.7439
 21
2482.7009
  0
LINE
  8
0-2
  6
CONTINUOUS
 62
    3
 10
1305.0001
 20
2432.701
 11
1255.0002
 21
2482.7009
  0
LINE
  8
0-2
  6
CONTINUOUS
 62
    3
 10
1094.4236
 20
2478.5682
 11
1094.0121
 21
2478.6783
  0
LINE
  8
0-2
  6
CONTINUOUS
 62
    3
 10
1094.0121
 20
2478.6783
 11
1093.6255
 21
2478.8282
  0
LINE
  8
0-2
  6
CONTINUOUS
 62
    3
 10
1093.6255
 20
2478.8282
 11
1093.2636
 21
2479.0148
  0
LINE
  8
0-2
  6
CONTINUOUS
 62
    3
 10
1093.2636
 20
2479.0148
 11
1092.9259
 21
2479.2355
  0
LINE
  8
0-2
  6
CONTINUOUS
 62
    3
 10
1092.9259
 20
2479.2355
 11
1092.6119
 21
2479.4879
  0
LINE
  8
0-2
  6
CONTINUOUS
 62
    3
 10
1092.6119
 20
2479.4879
 11
1092.3211
 21
2479.7685
  0
LINE
  8
0-2
  6
CONTINUOUS
 62
    3
 10
1092.3211
 20
2479.7685
 11
1092.0531
 21
2480.0746
  0
LINE
  8
0-2
  6
CONTINUOUS
 62
    3
 10
1092.0531
 20
2480.0746
 11
1091.8074
 21
2480.4039
  0
LINE
  8
0-2
  6
CONTINUOUS
 62
    3
 10
1091.8074
 20
2480.4039
 11
1091.5838
 21
2480.7528
  0
LINE
  8
0-2
  6
CONTINUOUS
 62
    3
 10
1091.5838
 20
2480.7528
 11
1091.3813
 21
2481.1193
  0
LINE
  8
0-2
  6
CONTINUOUS
 62
    3
 10
1091.3813
 20
2481.1193
 11
1091.2002
 21
2481.5001
  0
LINE
  8
0-2
  6
CONTINUOUS
 62
    3
 10
1091.2002
 20
2481.5001
 11
1091.0394
 21
2481.8925
  0
LINE
  8
0-2
  6
CONTINUOUS
 62
    3
 10
1091.0394
 20
2481.8925
 11
1090.8986
 21
2482.2939
  0
LINE
  8
0-2
  6
CONTINUOUS
 62
    3
 10
1090.8986
 20
2482.2939
 11
1090.7776
 21
2482.7009
  0
LINE
  8
0-2
  6
CONTINUOUS
 62
    3
 10
1096.6841
 20
2478.5461
 11
1097.1601
 21
2478.6991
  0
LINE
  8
0-2
  6
CONTINUOUS
 62
    3
 10
1097.1601
 20
2478.6991
 11
1097.6064
 21
2478.8797
  0
LINE
  8
0-2
  6
CONTINUOUS
 62
    3
 10
1097.6064
 20
2478.8797
 11
1098.0241
 21
2479.0868
  0
LINE
  8
0-2
  6
CONTINUOUS
 62
    3
 10
1098.0241
 20
2479.0868
 11
1098.4127
 21
2479.3186
  0
LINE
  8
0-2
  6
CONTINUOUS
 62
    3
 10
1098.4127
 20
2479.3186
 11
1098.7729
 21
2479.574
  0
LINE
  8
0-2
  6
CONTINUOUS
 62
    3
 10
1098.7729
 20
2479.574
 11
1099.1052
 21
2479.8516
  0
LINE
  8
0-2
  6
CONTINUOUS
 62
    3
 10
1099.1052
 20
2479.8516
 11
1099.4095
 21
2480.15
  0
LINE
  8
0-2
  6
CONTINUOUS
 62
    3
 10
1099.4095
 20
2480.15
 11
1099.6862
 21
2480.4678
  0
LINE
  8
0-2
  6
CONTINUOUS
 62
    3
 10
1099.6862
 20
2480.4678
 11
1099.936
 21
2480.8033
  0
LINE
  8
0-2
  6
CONTINUOUS
 62
    3
 10
1099.936
 20
2480.8033
 11
1100.1588
 21
2481.1551
  0
LINE
  8
0-2
  6
CONTINUOUS
 62
    3
 10
1100.1588
 20
2481.1551
 11
1100.355
 21
2481.5226
  0
LINE
  8
0-2
  6
CONTINUOUS
 62
    3
 10
1100.355
 20
2481.5226
 11
1100.525
 21
2481.9034
  0
LINE
  8
0-2
  6
CONTINUOUS
 62
    3
 10
1100.525
 20
2481.9034
 11
1100.669
 21
2482.2968
  0
LINE
  8
0-2
  6
CONTINUOUS
 62
    3
 10
1100.669
 20
2482.2968
 11
1100.7875
 21
2482.7009
  0
LINE
  8
0-2
  6
CONTINUOUS
 62
    3
 10
1120.4166
 20
2482.7009
 11
1120.8775
 21
2482.0296
  0
LINE
  8
0-2
  6
CONTINUOUS
 62
    3
 10
1120.8775
 20
2482.0296
 11
1121.3438
 21
2481.4328
  0
LINE
  8
0-2
  6
CONTINUOUS
 62
    3
 10
1121.3438
 20
2481.4328
 11
1121.8137
 21
2480.9057
  0
LINE
  8
0-2
  6
CONTINUOUS
 62
    3
 10
1121.8137
 20
2480.9057
 11
1122.2851
 21
2480.4445
  0
LINE
  8
0-2
  6
CONTINUOUS
 62
    3
 10
1122.2851
 20
2480.4445
 11
1122.7565
 21
2480.0449
  0
LINE
  8
0-2
  6
CONTINUOUS
 62
    3
 10
1122.7565
 20
2480.0449
 11
1123.2259
 21
2479.7032
  0
LINE
  8
0-2
  6
CONTINUOUS
 62
    3
 10
1123.2259
 20
2479.7032
 11
1123.6915
 21
2479.4149
  0
LINE
  8
0-2
  6
CONTINUOUS
 62
    3
 10
1123.6915
 20
2479.4149
 11
1124.1514
 21
2479.1759
  0
LINE
  8
0-2
  6
CONTINUOUS
 62
    3
 10
1124.1514
 20
2479.1759
 11
1124.6039
 21
2478.9819
  0
LINE
  8
0-2
  6
CONTINUOUS
 62
    3
 10
1124.6039
 20
2478.9819
 11
1125.047
 21
2478.8292
  0
LINE
  8
0-2
  6
CONTINUOUS
 62
    3
 10
1125.047
 20
2478.8292
 11
1125.4791
 21
2478.7134
  0
LINE
  8
0-2
  6
CONTINUOUS
 62
    3
 10
1125.4791
 20
2478.7134
 11
1125.898
 21
2478.6303
  0
LINE
  8
0-2
  6
CONTINUOUS
 62
    3
 10
1125.898
 20
2478.6303
 11
1126.3023
 21
2478.5758
  0
LINE
  8
0-2
  6
CONTINUOUS
 62
    3
 10
1126.3023
 20
2478.5758
 11
1126.6898
 21
2478.5461
  0
LINE
  8
0-2
  6
CONTINUOUS
 62
    3
 10
1129.9884
 20
2482.7009
 11
1129.9745
 21
2482.2181
  0
LINE
  8
0-2
  6
CONTINUOUS
 62
    3
 10
1129.9745
 20
2482.2181
 11
1129.9327
 21
2481.7718
  0
LINE
  8
0-2
  6
CONTINUOUS
 62
    3
 10
1129.9327
 20
2481.7718
 11
1129.8617
 21
2481.3605
  0
LINE
  8
0-2
  6
CONTINUOUS
 62
    3
 10
1129.8617
 20
2481.3605
 11
1129.7595
 21
2480.9814
  0
LINE
  8
0-2
  6
CONTINUOUS
 62
    3
 10
1129.7595
 20
2480.9814
 11
1129.6249
 21
2480.6333
  0
LINE
  8
0-2
  6
CONTINUOUS
 62
    3
 10
1129.6249
 20
2480.6333
 11
1129.456
 21
2480.3138
  0
LINE
  8
0-2
  6
CONTINUOUS
 62
    3
 10
1129.456
 20
2480.3138
 11
1129.2515
 21
2480.0209
  0
LINE
  8
0-2
  6
CONTINUOUS
 62
    3
 10
1129.2515
 20
2480.0209
 11
1129.0098
 21
2479.7524
  0
LINE
  8
0-2
  6
CONTINUOUS
 62
    3
 10
1129.0098
 20
2479.7524
 11
1128.7292
 21
2479.5067
  0
LINE
  8
0-2
  6
CONTINUOUS
 62
    3
 10
1128.7292
 20
2479.5067
 11
1128.4082
 21
2479.2815
  0
LINE
  8
0-2
  6
CONTINUOUS
 62
    3
 10
1128.4082
 20
2479.2815
 11
1128.0454
 21
2479.0749
  0
LINE
  8
0-2
  6
CONTINUOUS
 62
    3
 10
1128.0454
 20
2479.0749
 11
1127.6392
 21
2478.8846
  0
LINE
  8
0-2
  6
CONTINUOUS
 62
    3
 10
1127.6392
 20
2478.8846
 11
1127.1876
 21
2478.709
  0
LINE
  8
0-2
  6
CONTINUOUS
 62
    3
 10
1127.1876
 20
2478.709
 11
1126.6898
 21
2478.5461
  0
LINE
  8
0-2
  6
CONTINUOUS
 62
    3
 10
1157.4576
 20
2482.7009
 11
1157.2224
 21
2482.134
  0
LINE
  8
0-2
  6
CONTINUOUS
 62
    3
 10
1157.2224
 20
2482.134
 11
1156.9776
 21
2481.6193
  0
LINE
  8
0-2
  6
CONTINUOUS
 62
    3
 10
1156.9776
 20
2481.6193
 11
1156.7233
 21
2481.1551
  0
LINE
  8
0-2
  6
CONTINUOUS
 62
    3
 10
1156.7233
 20
2481.1551
 11
1156.4595
 21
2480.7385
  0
LINE
  8
0-2
  6
CONTINUOUS
 62
    3
 10
1156.4595
 20
2480.7385
 11
1156.187
 21
2480.367
  0
LINE
  8
0-2
  6
CONTINUOUS
 62
    3
 10
1156.187
 20
2480.367
 11
1155.9055
 21
2480.0382
  0
LINE
  8
0-2
  6
CONTINUOUS
 62
    3
 10
1155.9055
 20
2480.0382
 11
1155.6155
 21
2479.7492
  0
LINE
  8
0-2
  6
CONTINUOUS
 62
    3
 10
1155.6155
 20
2479.7492
 11
1155.3171
 21
2479.4978
  0
LINE
  8
0-2
  6
CONTINUOUS
 62
    3
 10
1155.3171
 20
2479.4978
 11
1155.0109
 21
2479.281
  0
LINE
  8
0-2
  6
CONTINUOUS
 62
    3
 10
1155.0109
 20
2479.281
 11
1154.6967
 21
2479.0972
  0
LINE
  8
0-2
  6
CONTINUOUS
 62
    3
 10
1154.6967
 20
2479.0972
 11
1154.3751
 21
2478.943
  0
LINE
  8
0-2
  6
CONTINUOUS
 62
    3
 10
1154.3751
 20
2478.943
 11
1154.0459
 21
2478.8163
  0
LINE
  8
0-2
  6
CONTINUOUS
 62
    3
 10
1154.0459
 20
2478.8163
 11
1153.7097
 21
2478.7144
  0
LINE
  8
0-2
  6
CONTINUOUS
 62
    3
 10
1153.7097
 20
2478.7144
 11
1153.3668
 21
2478.6347
  0
LINE
  8
0-2
  6
CONTINUOUS
 62
    3
 10
1152.6126
 20
2478.6347
 11
1152.255
 21
2478.7025
  0
LINE
  8
0-2
  6
CONTINUOUS
 62
    3
 10
1152.255
 20
2478.7025
 11
1151.9002
 21
2478.8109
  0
LINE
  8
0-2
  6
CONTINUOUS
 62
    3
 10
1151.9002
 20
2478.8109
 11
1151.5483
 21
2478.9589
  0
LINE
  8
0-2
  6
CONTINUOUS
 62
    3
 10
1151.5483
 20
2478.9589
 11
1151.1992
 21
2479.1472
  0
LINE
  8
0-2
  6
CONTINUOUS
 62
    3
 10
1151.1992
 20
2479.1472
 11
1150.8531
 21
2479.3756
  0
LINE
  8
0-2
  6
CONTINUOUS
 62
    3
 10
1150.8531
 20
2479.3756
 11
1150.5098
 21
2479.6438
  0
LINE
  8
0-2
  6
CONTINUOUS
 62
    3
 10
1150.5098
 20
2479.6438
 11
1150.1696
 21
2479.9526
  0
LINE
  8
0-2
  6
CONTINUOUS
 62
    3
 10
1150.1696
 20
2479.9526
 11
1149.8321
 21
2480.3015
  0
LINE
  8
0-2
  6
CONTINUOUS
 62
    3
 10
1149.8321
 20
2480.3015
 11
1149.4977
 21
2480.69
  0
LINE
  8
0-2
  6
CONTINUOUS
 62
    3
 10
1182.6005
 20
2482.7009
 11
1182.5326
 21
2482.2686
  0
LINE
  8
0-2
  6
CONTINUOUS
 62
    3
 10
1182.5326
 20
2482.2686
 11
1182.436
 21
2481.8663
  0
LINE
  8
0-2
  6
CONTINUOUS
 62
    3
 10
1182.436
 20
2481.8663
 11
1182.3133
 21
2481.4924
  0
LINE
  8
0-2
  6
CONTINUOUS
 62
    3
 10
1182.3133
 20
2481.4924
 11
1182.1664
 21
2481.1462
  0
LINE
  8
0-2
  6
CONTINUOUS
 62
    3
 10
1182.1664
 20
2481.1462
 11
1181.9978
 21
2480.826
  0
LINE
  8
0-2
  6
CONTINUOUS
 62
    3
 10
1181.9978
 20
2480.826
 11
1181.809
 21
2480.5311
  0
LINE
  8
0-2
  6
CONTINUOUS
 62
    3
 10
1181.809
 20
2480.5311
 11
1181.6024
 21
2480.2604
  0
LINE
  8
0-2
  6
CONTINUOUS
 62
    3
 10
1181.6024
 20
2480.2604
 11
1181.3795
 21
2480.013
  0
LINE
  8
0-2
  6
CONTINUOUS
 62
    3
 10
1181.3795
 20
2480.013
 11
1181.1421
 21
2479.7878
  0
LINE
  8
0-2
  6
CONTINUOUS
 62
    3
 10
1181.1421
 20
2479.7878
 11
1180.8917
 21
2479.5844
  0
LINE
  8
0-2
  6
CONTINUOUS
 62
    3
 10
1180.8917
 20
2479.5844
 11
1180.6298
 21
2479.402
  0
LINE
  8
0-2
  6
CONTINUOUS
 62
    3
 10
1180.6298
 20
2479.402
 11
1180.3577
 21
2479.24
  0
LINE
  8
0-2
  6
CONTINUOUS
 62
    3
 10
1180.3577
 20
2479.24
 11
1180.0767
 21
2479.0974
  0
LINE
  8
0-2
  6
CONTINUOUS
 62
    3
 10
1180.0767
 20
2479.0974
 11
1179.7876
 21
2478.9742
  0
LINE
  8
0-2
  6
CONTINUOUS
 62
    3
 10
1179.7876
 20
2478.9742
 11
1179.4917
 21
2478.8698
  0
LINE
  8
0-2
  6
CONTINUOUS
 62
    3
 10
1179.4917
 20
2478.8698
 11
1179.1898
 21
2478.7837
  0
LINE
  8
0-2
  6
CONTINUOUS
 62
    3
 10
1179.1898
 20
2478.7837
 11
1178.8828
 21
2478.7161
  0
LINE
  8
0-2
  6
CONTINUOUS
 62
    3
 10
1178.8828
 20
2478.7161
 11
1178.571
 21
2478.6666
  0
LINE
  8
0-2
  6
CONTINUOUS
 62
    3
 10
1178.571
 20
2478.6666
 11
1178.2554
 21
2478.6347
  0
LINE
  8
0-2
  6
CONTINUOUS
 62
    3
 10
1178.1757
 20
2478.6384
 11
1177.9979
 21
2478.656
  0
LINE
  8
0-2
  6
CONTINUOUS
 62
    3
 10
1177.9979
 20
2478.656
 11
1177.8232
 21
2478.6812
  0
LINE
  8
0-2
  6
CONTINUOUS
 62
    3
 10
1177.8232
 20
2478.6812
 11
1177.6515
 21
2478.7144
  0
LINE
  8
0-2
  6
CONTINUOUS
 62
    3
 10
1177.6515
 20
2478.7144
 11
1177.483
 21
2478.755
  0
LINE
  8
0-2
  6
CONTINUOUS
 62
    3
 10
1177.483
 20
2478.755
 11
1177.3174
 21
2478.803
  0
LINE
  8
0-2
  6
CONTINUOUS
 62
    3
 10
1177.3174
 20
2478.803
 11
1177.155
 21
2478.8589
  0
LINE
  8
0-2
  6
CONTINUOUS
 62
    3
 10
1177.155
 20
2478.8589
 11
1176.9957
 21
2478.9225
  0
LINE
  8
0-2
  6
CONTINUOUS
 62
    3
 10
1176.9957
 20
2478.9225
 11
1176.8394
 21
2478.9938
  0
LINE
  8
0-2
  6
CONTINUOUS
 62
    3
 10
1176.8394
 20
2478.9938
 11
1176.686
 21
2479.0727
  0
LINE
  8
0-2
  6
CONTINUOUS
 62
    3
 10
1250.0194
 20
2482.7009
 11
1249.9585
 21
2482.2464
  0
LINE
  8
0-2
  6
CONTINUOUS
 62
    3
 10
1249.9585
 20
2482.2464
 11
1249.894
 21
2481.8307
  0
LINE
  8
0-2
  6
CONTINUOUS
 62
    3
 10
1249.894
 20
2481.8307
 11
1249.8262
 21
2481.4545
  0
LINE
  8
0-2
  6
CONTINUOUS
 62
    3
 10
1249.8262
 20
2481.4545
 11
1249.7547
 21
2481.1173
  0
LINE
  8
0-2
  6
CONTINUOUS
 62
    3
 10
1249.7547
 20
2481.1173
 11
1249.6797
 21
2480.8196
  0
LINE
  8
0-2
  6
CONTINUOUS
 62
    3
 10
1249.6797
 20
2480.8196
 11
1249.6012
 21
2480.561
  0
LINE
  8
0-2
  6
CONTINUOUS
 62
    3
 10
1249.6012
 20
2480.561
 11
1249.5192
 21
2480.3416
  0
LINE
  8
0-2
  6
CONTINUOUS
 62
    3
 10
1249.5192
 20
2480.3416
 11
1249.4335
 21
2480.1617
  0
LINE
  8
0-2
  6
CONTINUOUS
 62
    3
 10
1249.4335
 20
2480.1617
 11
1249.3445
 21
2480.0209
  0
LINE
  8
0-2
  6
CONTINUOUS
 62
    3
 10
1238.9515
 20
2482.7009
 11
1238.9178
 21
2482.3409
  0
LINE
  8
0-2
  6
CONTINUOUS
 62
    3
 10
1238.9178
 20
2482.3409
 11
1238.8622
 21
2482.0004
  0
LINE
  8
0-2
  6
CONTINUOUS
 62
    3
 10
1238.8622
 20
2482.0004
 11
1238.7869
 21
2481.6795
  0
LINE
  8
0-2
  6
CONTINUOUS
 62
    3
 10
1238.7869
 20
2481.6795
 11
1238.6944
 21
2481.3783
  0
LINE
  8
0-2
  6
CONTINUOUS
 62
    3
 10
1238.6944
 20
2481.3783
 11
1238.5863
 21
2481.097
  0
LINE
  8
0-2
  6
CONTINUOUS
 62
    3
 10
1238.5863
 20
2481.097
 11
1238.4652
 21
2480.8359
  0
LINE
  8
0-2
  6
CONTINUOUS
 62
    3
 10
1238.4652
 20
2480.8359
 11
1238.3329
 21
2480.5944
  0
LINE
  8
0-2
  6
CONTINUOUS
 62
    3
 10
1238.3329
 20
2480.5944
 11
1238.1919
 21
2480.3735
  0
LINE
  8
0-2
  6
CONTINUOUS
 62
    3
 10
1238.1919
 20
2480.3735
 11
1238.0441
 21
2480.1723
  0
LINE
  8
0-2
  6
CONTINUOUS
 62
    3
 10
1238.0441
 20
2480.1723
 11
1237.892
 21
2479.9919
  0
LINE
  8
0-2
  6
CONTINUOUS
 62
    3
 10
1237.892
 20
2479.9919
 11
1237.7372
 21
2479.8321
  0
LINE
  8
0-2
  6
CONTINUOUS
 62
    3
 10
1237.7372
 20
2479.8321
 11
1237.5824
 21
2479.6925
  0
LINE
  8
0-2
  6
CONTINUOUS
 62
    3
 10
1237.5824
 20
2479.6925
 11
1237.4295
 21
2479.5738
  0
LINE
  8
0-2
  6
CONTINUOUS
 62
    3
 10
1237.4295
 20
2479.5738
 11
1237.2807
 21
2479.4758
  0
LINE
  8
0-2
  6
CONTINUOUS
 62
    3
 10
1223.7935
 20
2482.7009
 11
1223.693
 21
2482.3
  0
LINE
  8
0-2
  6
CONTINUOUS
 62
    3
 10
1223.693
 20
2482.3
 11
1223.5706
 21
2481.9249
  0
LINE
  8
0-2
  6
CONTINUOUS
 62
    3
 10
1223.5706
 20
2481.9249
 11
1223.4272
 21
2481.5748
  0
LINE
  8
0-2
  6
CONTINUOUS
 62
    3
 10
1223.4272
 20
2481.5748
 11
1223.2638
 21
2481.2502
  0
LINE
  8
0-2
  6
CONTINUOUS
 62
    3
 10
1223.2638
 20
2481.2502
 11
1223.0812
 21
2480.95
  0
LINE
  8
0-2
  6
CONTINUOUS
 62
    3
 10
1223.0812
 20
2480.95
 11
1222.8803
 21
2480.6746
  0
LINE
  8
0-2
  6
CONTINUOUS
 62
    3
 10
1222.8803
 20
2480.6746
 11
1222.662
 21
2480.4242
  0
LINE
  8
0-2
  6
CONTINUOUS
 62
    3
 10
1222.662
 20
2480.4242
 11
1222.427
 21
2480.1975
  0
LINE
  8
0-2
  6
CONTINUOUS
 62
    3
 10
1222.427
 20
2480.1975
 11
1222.1764
 21
2479.9956
  0
LINE
  8
0-2
  6
CONTINUOUS
 62
    3
 10
1222.1764
 20
2479.9956
 11
1221.9109
 21
2479.817
  0
LINE
  8
0-2
  6
CONTINUOUS
 62
    3
 10
1221.9109
 20
2479.817
 11
1221.6316
 21
2479.6626
  0
LINE
  8
0-2
  6
CONTINUOUS
 62
    3
 10
1221.6316
 20
2479.6626
 11
1221.3391
 21
2479.5314
  0
LINE
  8
0-2
  6
CONTINUOUS
 62
    3
 10
1221.3391
 20
2479.5314
 11
1221.0344
 21
2479.4241
  0
LINE
  8
0-2
  6
CONTINUOUS
 62
    3
 10
1221.0344
 20
2479.4241
 11
1220.7185
 21
2479.3394
  0
LINE
  8
0-2
  6
CONTINUOUS
 62
    3
 10
1204.8819
 20
2482.7009
 11
1204.7298
 21
2482.281
  0
LINE
  8
0-2
  6
CONTINUOUS
 62
    3
 10
1204.7298
 20
2482.281
 11
1204.5518
 21
2481.8915
  0
LINE
  8
0-2
  6
CONTINUOUS
 62
    3
 10
1204.5518
 20
2481.8915
 11
1204.3499
 21
2481.533
  0
LINE
  8
0-2
  6
CONTINUOUS
 62
    3
 10
1204.3499
 20
2481.533
 11
1204.1262
 21
2481.2051
  0
LINE
  8
0-2
  6
CONTINUOUS
 62
    3
 10
1204.1262
 20
2481.2051
 11
1203.883
 21
2480.9084
  0
LINE
  8
0-2
  6
CONTINUOUS
 62
    3
 10
1203.883
 20
2480.9084
 11
1203.6225
 21
2480.6424
  0
LINE
  8
0-2
  6
CONTINUOUS
 62
    3
 10
1203.6225
 20
2480.6424
 11
1203.347
 21
2480.4069
  0
LINE
  8
0-2
  6
CONTINUOUS
 62
    3
 10
1203.347
 20
2480.4069
 11
1203.0589
 21
2480.2018
  0
LINE
  8
0-2
  6
CONTINUOUS
 62
    3
 10
1203.0589
 20
2480.2018
 11
1202.7606
 21
2480.0263
  0
LINE
  8
0-2
  6
CONTINUOUS
 62
    3
 10
1202.7606
 20
2480.0263
 11
1202.4546
 21
2479.8806
  0
LINE
  8
0-2
  6
CONTINUOUS
 62
    3
 10
1202.4546
 20
2479.8806
 11
1202.1436
 21
2479.7635
  0
LINE
  8
0-2
  6
CONTINUOUS
 62
    3
 10
1202.1436
 20
2479.7635
 11
1201.8298
 21
2479.674
  0
LINE
  8
0-2
  6
CONTINUOUS
 62
    3
 10
1201.8298
 20
2479.674
 11
1201.5163
 21
2479.6121
  0
LINE
  8
0-2
  6
CONTINUOUS
 62
    3
 10
1201.5163
 20
2479.6121
 11
1201.2058
 21
2479.5765
  0
LINE
  8
0-2
  6
CONTINUOUS
 62
    3
 10
1201.2058
 20
2479.5765
 11
1200.9007
 21
2479.5656
  0
LINE
  8
0-2
  6
CONTINUOUS
 62
    3
 10
1200.9007
 20
2479.5656
 11
1200.604
 21
2479.579
  0
LINE
  8
0-2
  6
CONTINUOUS
 62
    3
 10
1200.604
 20
2479.579
 11
1200.3188
 21
2479.6146
  0
LINE
  8
0-2
  6
CONTINUOUS
 62
    3
 10
1200.3188
 20
2479.6146
 11
1200.0479
 21
2479.6715
  0
LINE
  8
0-2
  6
CONTINUOUS
 62
    3
 10
1200.0479
 20
2479.6715
 11
1199.7943
 21
2479.7482
  0
LINE
  8
0-2
  6
CONTINUOUS
 62
    3
 10
1250.0194
 20
2482.7009
 11
1255.0002
 21
2482.7009
  0
LINE
  8
0-2
  6
CONTINUOUS
 62
    3
 10
1298.8046
 20
2432.701
 11
1250.0194
 21
2482.7009
  0
LINE
  8
0-2
  6
CONTINUOUS
 62
    3
 10
1246.8012
 20
2482.7009
 11
1294.8014
 21
2432.701
  0
LINE
  8
0-2
  6
CONTINUOUS
 62
    3
 10
1285.0373
 20
2432.701
 11
1238.9515
 21
2482.7009
  0
LINE
  8
0-2
  6
CONTINUOUS
 62
    3
 10
1238.9515
 20
2482.7009
 11
1246.8012
 21
2482.7009
  0
LINE
  8
0-2
  6
CONTINUOUS
 62
    3
 10
1234.3388
 20
2482.7009
 11
1279.2995
 21
2432.701
  0
LINE
  8
0-2
  6
CONTINUOUS
 62
    3
 10
1223.7935
 20
2482.7009
 11
1234.3388
 21
2482.7009
  0
LINE
  8
0-2
  6
CONTINUOUS
 62
    3
 10
1266.1821
 20
2432.701
 11
1223.7935
 21
2482.7009
  0
LINE
  8
0-2
  6
CONTINUOUS
 62
    3
 10
1217.8861
 20
2482.7009
 11
1258.8339
 21
2432.701
  0
LINE
  8
0-2
  6
CONTINUOUS
 62
    3
 10
1204.8733
 20
2482.7009
 11
1217.8861
 21
2482.7009
  0
LINE
  8
0-2
  6
CONTINUOUS
 62
    3
 10
1242.6474
 20
2432.701
 11
1204.8733
 21
2482.7009
  0
LINE
  8
0-2
  6
CONTINUOUS
 62
    3
 10
1197.7993
 20
2482.7009
 11
1233.8478
 21
2432.701
  0
LINE
  8
0-2
  6
CONTINUOUS
 62
    3
 10
1182.6005
 20
2482.7009
 11
1197.7993
 21
2482.7009
  0
LINE
  8
0-2
  6
CONTINUOUS
 62
    3
 10
1214.9422
 20
2432.701
 11
1182.6005
 21
2482.7009
  0
LINE
  8
0-2
  6
CONTINUOUS
 62
    3
 10
1174.5127
 20
2482.7009
 11
1204.8819
 21
2432.701
  0
LINE
  8
0-2
  6
CONTINUOUS
 62
    3
 10
1157.4576
 20
2482.7009
 11
1174.5127
 21
2482.7009
  0
LINE
  8
0-2
  6
CONTINUOUS
 62
    3
 10
1183.6668
 20
2432.701
 11
1157.4576
 21
2482.7009
  0
LINE
  8
0-2
  6
CONTINUOUS
 62
    3
 10
1148.5312
 20
2482.7009
 11
1172.5631
 21
2432.701
  0
LINE
  8
0-2
  6
CONTINUOUS
 62
    3
 10
1129.9884
 20
2482.7009
 11
1148.5312
 21
2482.7009
  0
LINE
  8
0-2
  6
CONTINUOUS
 62
    3
 10
1149.4977
 20
2432.701
 11
1129.9884
 21
2482.7009
  0
LINE
  8
0-2
  6
CONTINUOUS
 62
    3
 10
1137.5915
 20
2432.701
 11
1120.4166
 21
2482.7009
  0
LINE
  8
0-2
  6
CONTINUOUS
 62
    3
 10
1100.7875
 20
2482.7009
 11
1120.4166
 21
2482.7009
  0
LINE
  8
0-2
  6
CONTINUOUS
 62
    3
 10
1100.7875
 20
2482.7009
 11
1113.1749
 21
2432.701
  0
LINE
  8
0-2
  6
CONTINUOUS
 62
    3
 10
1100.7234
 20
2432.701
 11
1090.7776
 21
2482.7009
  0
LINE
  8
0-2
  6
CONTINUOUS
 62
    3
 10
1070.4874
 20
2482.7009
 11
1090.7776
 21
2482.7009
  0
LINE
  8
0-2
  6
CONTINUOUS
 62
    3
 10
1070.4874
 20
2482.7009
 11
1075.4843
 21
2432.701
  0
LINE
  8
0-2
  6
CONTINUOUS
 62
    3
 10
1060.256
 20
2482.7009
 11
1062.7575
 21
2432.701
  0
LINE
  8
0-2
  6
CONTINUOUS
 62
    3
 10
1050
 20
2482.7009
 11
1060.256
 21
2482.7009
  0
LINE
  8
0-2
  6
CONTINUOUS
 62
    3
 10
1024.5156
 20
2362.701
 11
1024.5156
 21
2222.701
  0
LINE
  8
0-2
  6
CONTINUOUS
 62
    3
 10
999.27661
 20
2362.701
 11
999.27661
 21
2222.701
  0
LINE
  8
0-2
  6
CONTINUOUS
 62
    3
 10
950.50233
 20
2362.701
 11
950.50233
 21
2222.701
  0
LINE
  8
0-2
  6
CONTINUOUS
 62
    3
 10
927.43685
 20
2362.701
 11
927.43685
 21
2222.701
  0
LINE
  8
0-2
  6
CONTINUOUS
 62
    3
 10
885.05777
 20
2362.701
 11
885.05777
 21
2222.701
  0
LINE
  8
0-2
  6
CONTINUOUS
 62
    3
 10
866.15225
 20
2362.701
 11
866.15225
 21
2222.701
  0
LINE
  8
0-2
  6
CONTINUOUS
 62
    3
 10
833.81793
 20
2362.701
 11
833.81793
 21
2222.701
  0
LINE
  8
0-2
  6
CONTINUOUS
 62
    3
 10
999.27661
 20
2222.701
 11
950.50233
 21
2234.8216
  0
LINE
  8
0-2
  6
CONTINUOUS
 62
    3
 10
866.15225
 20
2222.701
 11
833.81793
 21
2234.8216
  0
LINE
  8
0-2
  6
CONTINUOUS
 62
    3
 10
893.61269
 20
2362.701
 11
893.61269
 21
2222.701
  0
LINE
  8
0-2
  6
CONTINUOUS
 62
    3
 10
903.61266
 20
2362.701
 11
903.61266
 21
2222.701
  0
LINE
  8
0-2
  6
CONTINUOUS
 62
    3
 10
927.43685
 20
2222.701
 11
903.61266
 21
2229.5148
  0
LINE
  8
0-2
  6
CONTINUOUS
 62
    3
 10
893.61269
 20
2232.3749
 11
885.05783
 21
2234.8216
  0
LINE
  8
0-2
  6
CONTINUOUS
 62
    3
 10
794.99994
 20
2162.7008
 11
794.99994
 21
2212.7015
  0
LINE
  8
0-2
  6
CONTINUOUS
 62
    3
 10
1075.4843
 20
2362.701
 11
1075.4843
 21
2222.701
  0
LINE
  8
0-2
  6
CONTINUOUS
 62
    3
 10
1100.7234
 20
2362.701
 11
1100.7234
 21
2222.701
  0
LINE
  8
0-2
  6
CONTINUOUS
 62
    3
 10
1149.4977
 20
2362.701
 11
1149.4977
 21
2222.701
  0
LINE
  8
0-2
  6
CONTINUOUS
 62
    3
 10
1172.5631
 20
2362.701
 11
1172.5631
 21
2222.701
  0
LINE
  8
0-2
  6
CONTINUOUS
 62
    3
 10
1214.9422
 20
2362.701
 11
1214.9422
 21
2222.701
  0
LINE
  8
0-2
  6
CONTINUOUS
 62
    3
 10
1233.8478
 20
2362.701
 11
1233.8478
 21
2222.701
  0
LINE
  8
0-2
  6
CONTINUOUS
 62
    3
 10
1266.1821
 20
2362.701
 11
1266.1821
 21
2222.701
  0
LINE
  8
0-2
  6
CONTINUOUS
 62
    3
 10
1206.3874
 20
2362.701
 11
1206.3874
 21
2222.701
  0
LINE
  8
0-2
  6
CONTINUOUS
 62
    3
 10
1196.3874
 20
2362.701
 11
1196.3874
 21
2222.701
  0
LINE
  8
0-2
  6
CONTINUOUS
 62
    3
 10
1100.7234
 20
2234.8216
 11
1149.4977
 21
2222.701
  0
LINE
  8
0-2
  6
CONTINUOUS
 62
    3
 10
1075.4843
 20
2222.701
 11
1024.5156
 21
2234.8216
  0
LINE
  8
0-2
  6
CONTINUOUS
 62
    3
 10
794.99994
 20
2152.7008
 11
1305.0007
 21
2152.7008
  0
LINE
  8
0-2
  6
CONTINUOUS
 62
    3
 10
1305
 20
2152.7008
 11
1255.0002
 21
2102.7009
  0
LINE
  8
0-2
  6
CONTINUOUS
 62
    3
 10
794.99994
 20
2152.7008
 11
844.99986
 21
2102.7009
  0
LINE
  8
0-2
  6
CONTINUOUS
 62
    3
 10
1005.5763
 20
2106.8336
 11
1005.9879
 21
2106.7235
  0
LINE
  8
0-2
  6
CONTINUOUS
 62
    3
 10
1005.9879
 20
2106.7235
 11
1006.3744
 21
2106.5738
  0
LINE
  8
0-2
  6
CONTINUOUS
 62
    3
 10
1006.3744
 20
2106.5738
 11
1006.7363
 21
2106.387
  0
LINE
  8
0-2
  6
CONTINUOUS
 62
    3
 10
1006.7363
 20
2106.387
 11
1007.0741
 21
2106.1663
  0
LINE
  8
0-2
  6
CONTINUOUS
 62
    3
 10
1007.0741
 20
2106.1663
 11
1007.3881
 21
2105.9141
  0
LINE
  8
0-2
  6
CONTINUOUS
 62
    3
 10
1007.3881
 20
2105.9141
 11
1007.6789
 21
2105.6335
  0
LINE
  8
0-2
  6
CONTINUOUS
 62
    3
 10
1007.6789
 20
2105.6335
 11
1007.9469
 21
2105.3272
  0
LINE
  8
0-2
  6
CONTINUOUS
 62
    3
 10
1007.9469
 20
2105.3272
 11
1008.1926
 21
2104.9981
  0
LINE
  8
0-2
  6
CONTINUOUS
 62
    3
 10
1008.1926
 20
2104.9981
 11
1008.4163
 21
2104.649
  0
LINE
  8
0-2
  6
CONTINUOUS
 62
    3
 10
1008.4163
 20
2104.649
 11
1008.6186
 21
2104.2827
  0
LINE
  8
0-2
  6
CONTINUOUS
 62
    3
 10
1008.6186
 20
2104.2827
 11
1008.7998
 21
2103.9017
  0
LINE
  8
0-2
  6
CONTINUOUS
 62
    3
 10
1008.7998
 20
2103.9017
 11
1008.9606
 21
2103.5092
  0
LINE
  8
0-2
  6
CONTINUOUS
 62
    3
 10
1008.9606
 20
2103.5092
 11
1009.1013
 21
2103.1081
  0
LINE
  8
0-2
  6
CONTINUOUS
 62
    3
 10
1009.1013
 20
2103.1081
 11
1009.2224
 21
2102.7009
  0
LINE
  8
0-2
  6
CONTINUOUS
 62
    3
 10
1003.3159
 20
2106.8559
 11
1002.84
 21
2106.703
  0
LINE
  8
0-2
  6
CONTINUOUS
 62
    3
 10
1002.84
 20
2106.703
 11
1002.3935
 21
2106.5221
  0
LINE
  8
0-2
  6
CONTINUOUS
 62
    3
 10
1002.3935
 20
2106.5221
 11
1001.976
 21
2106.3152
  0
LINE
  8
0-2
  6
CONTINUOUS
 62
    3
 10
1001.976
 20
2106.3152
 11
1001.5873
 21
2106.0831
  0
LINE
  8
0-2
  6
CONTINUOUS
 62
    3
 10
1001.5873
 20
2106.0831
 11
1001.227
 21
2105.8278
  0
LINE
  8
0-2
  6
CONTINUOUS
 62
    3
 10
1001.227
 20
2105.8278
 11
1000.8948
 21
2105.5501
  0
LINE
  8
0-2
  6
CONTINUOUS
 62
    3
 10
1000.8948
 20
2105.5501
 11
1000.5905
 21
2105.2517
  0
LINE
  8
0-2
  6
CONTINUOUS
 62
    3
 10
1000.5905
 20
2105.2517
 11
1000.3137
 21
2104.9343
  0
LINE
  8
0-2
  6
CONTINUOUS
 62
    3
 10
1000.3137
 20
2104.9343
 11
1000.064
 21
2104.5987
  0
LINE
  8
0-2
  6
CONTINUOUS
 62
    3
 10
1000.064
 20
2104.5987
 11
999.84127
 21
2104.2466
  0
LINE
  8
0-2
  6
CONTINUOUS
 62
    3
 10
999.84127
 20
2104.2466
 11
999.64505
 21
2103.8792
  0
LINE
  8
0-2
  6
CONTINUOUS
 62
    3
 10
999.64505
 20
2103.8792
 11
999.475
 21
2103.4984
  0
LINE
  8
0-2
  6
CONTINUOUS
 62
    3
 10
999.475
 20
2103.4984
 11
999.33093
 21
2103.1052
  0
LINE
  8
0-2
  6
CONTINUOUS
 62
    3
 10
999.33093
 20
2103.1052
 11
999.2124
 21
2102.7009
  0
LINE
  8
0-2
  6
CONTINUOUS
 62
    3
 10
979.58343
 20
2102.7009
 11
979.12245
 21
2103.3722
  0
LINE
  8
0-2
  6
CONTINUOUS
 62
    3
 10
979.12245
 20
2103.3722
 11
978.65615
 21
2103.9692
  0
LINE
  8
0-2
  6
CONTINUOUS
 62
    3
 10
978.65615
 20
2103.9692
 11
978.18633
 21
2104.4963
  0
LINE
  8
0-2
  6
CONTINUOUS
 62
    3
 10
978.18633
 20
2104.4963
 11
977.71483
 21
2104.9575
  0
LINE
  8
0-2
  6
CONTINUOUS
 62
    3
 10
977.71483
 20
2104.9575
 11
977.24352
 21
2105.3569
  0
LINE
  8
0-2
  6
CONTINUOUS
 62
    3
 10
977.24352
 20
2105.3569
 11
976.77413
 21
2105.6986
  0
LINE
  8
0-2
  6
CONTINUOUS
 62
    3
 10
976.77413
 20
2105.6986
 11
976.30857
 21
2105.9871
  0
LINE
  8
0-2
  6
CONTINUOUS
 62
    3
 10
976.30857
 20
2105.9871
 11
975.84864
 21
2106.2261
  0
LINE
  8
0-2
  6
CONTINUOUS
 62
    3
 10
975.84864
 20
2106.2261
 11
975.3962
 21
2106.4199
  0
LINE
  8
0-2
  6
CONTINUOUS
 62
    3
 10
975.3962
 20
2106.4199
 11
974.95303
 21
2106.5726
  0
LINE
  8
0-2
  6
CONTINUOUS
 62
    3
 10
974.95303
 20
2106.5726
 11
974.521
 21
2106.6886
  0
LINE
  8
0-2
  6
CONTINUOUS
 62
    3
 10
974.521
 20
2106.6886
 11
974.10202
 21
2106.7715
  0
LINE
  8
0-2
  6
CONTINUOUS
 62
    3
 10
974.10202
 20
2106.7715
 11
973.69777
 21
2106.8262
  0
LINE
  8
0-2
  6
CONTINUOUS
 62
    3
 10
973.69777
 20
2106.8262
 11
973.31022
 21
2106.8559
  0
LINE
  8
0-2
  6
CONTINUOUS
 62
    3
 10
970.01172
 20
2102.7009
 11
970.02551
 21
2103.1836
  0
LINE
  8
0-2
  6
CONTINUOUS
 62
    3
 10
970.02551
 20
2103.1836
 11
970.06721
 21
2103.63
  0
LINE
  8
0-2
  6
CONTINUOUS
 62
    3
 10
970.06721
 20
2103.63
 11
970.13828
 21
2104.0415
  0
LINE
  8
0-2
  6
CONTINUOUS
 62
    3
 10
970.13828
 20
2104.0415
 11
970.24042
 21
2104.4203
  0
LINE
  8
0-2
  6
CONTINUOUS
 62
    3
 10
970.24042
 20
2104.4203
 11
970.37521
 21
2104.7685
  0
LINE
  8
0-2
  6
CONTINUOUS
 62
    3
 10
970.37521
 20
2104.7685
 11
970.54402
 21
2105.0882
  0
LINE
  8
0-2
  6
CONTINUOUS
 62
    3
 10
970.54402
 20
2105.0882
 11
970.74853
 21
2105.3809
  0
LINE
  8
0-2
  6
CONTINUOUS
 62
    3
 10
970.74853
 20
2105.3809
 11
970.99028
 21
2105.6494
  0
LINE
  8
0-2
  6
CONTINUOUS
 62
    3
 10
970.99028
 20
2105.6494
 11
971.27082
 21
2105.8951
  0
LINE
  8
0-2
  6
CONTINUOUS
 62
    3
 10
971.27082
 20
2105.8951
 11
971.59175
 21
2106.1202
  0
LINE
  8
0-2
  6
CONTINUOUS
 62
    3
 10
971.59175
 20
2106.1202
 11
971.95462
 21
2106.3271
  0
LINE
  8
0-2
  6
CONTINUOUS
 62
    3
 10
971.95462
 20
2106.3271
 11
972.36091
 21
2106.5171
  0
LINE
  8
0-2
  6
CONTINUOUS
 62
    3
 10
972.36091
 20
2106.5171
 11
972.81231
 21
2106.6931
  0
LINE
  8
0-2
  6
CONTINUOUS
 62
    3
 10
972.81231
 20
2106.6931
 11
973.31022
 21
2106.8559
  0
LINE
  8
0-2
  6
CONTINUOUS
 62
    3
 10
942.5425
 20
2102.7009
 11
942.77756
 21
2103.268
  0
LINE
  8
0-2
  6
CONTINUOUS
 62
    3
 10
942.77756
 20
2103.268
 11
943.0224
 21
2103.7824
  0
LINE
  8
0-2
  6
CONTINUOUS
 62
    3
 10
943.0224
 20
2103.7824
 11
943.27677
 21
2104.2466
  0
LINE
  8
0-2
  6
CONTINUOUS
 62
    3
 10
943.27677
 20
2104.2466
 11
943.54042
 21
2104.6633
  0
LINE
  8
0-2
  6
CONTINUOUS
 62
    3
 10
943.54042
 20
2104.6633
 11
943.8131
 21
2105.0347
  0
LINE
  8
0-2
  6
CONTINUOUS
 62
    3
 10
943.8131
 20
2105.0347
 11
944.09456
 21
2105.3638
  0
LINE
  8
0-2
  6
CONTINUOUS
 62
    3
 10
944.09456
 20
2105.3638
 11
944.3845
 21
2105.6528
  0
LINE
  8
0-2
  6
CONTINUOUS
 62
    3
 10
944.3845
 20
2105.6528
 11
944.68285
 21
2105.9042
  0
LINE
  8
0-2
  6
CONTINUOUS
 62
    3
 10
944.68285
 20
2105.9042
 11
944.98912
 21
2106.1207
  0
LINE
  8
0-2
  6
CONTINUOUS
 62
    3
 10
944.98912
 20
2106.1207
 11
945.30331
 21
2106.3048
  0
LINE
  8
0-2
  6
CONTINUOUS
 62
    3
 10
945.30331
 20
2106.3048
 11
945.62504
 21
2106.4587
  0
LINE
  8
0-2
  6
CONTINUOUS
 62
    3
 10
945.62504
 20
2106.4587
 11
945.95413
 21
2106.5857
  0
LINE
  8
0-2
  6
CONTINUOUS
 62
    3
 10
945.95413
 20
2106.5857
 11
946.29022
 21
2106.6874
  0
LINE
  8
0-2
  6
CONTINUOUS
 62
    3
 10
946.29022
 20
2106.6874
 11
946.63323
 21
2106.767
  0
LINE
  8
0-2
  6
CONTINUOUS
 62
    3
 10
947.38743
 20
2106.767
 11
947.7451
 21
2106.6992
  0
LINE
  8
0-2
  6
CONTINUOUS
 62
    3
 10
947.7451
 20
2106.6992
 11
948.09993
 21
2106.5911
  0
LINE
  8
0-2
  6
CONTINUOUS
 62
    3
 10
948.09993
 20
2106.5911
 11
948.45179
 21
2106.4429
  0
LINE
  8
0-2
  6
CONTINUOUS
 62
    3
 10
948.45179
 20
2106.4429
 11
948.80087
 21
2106.2546
  0
LINE
  8
0-2
  6
CONTINUOUS
 62
    3
 10
948.80087
 20
2106.2546
 11
949.14691
 21
2106.0265
  0
LINE
  8
0-2
  6
CONTINUOUS
 62
    3
 10
949.14691
 20
2106.0265
 11
949.49011
 21
2105.758
  0
LINE
  8
0-2
  6
CONTINUOUS
 62
    3
 10
949.49011
 20
2105.758
 11
949.8304
 21
2105.4492
  0
LINE
  8
0-2
  6
CONTINUOUS
 62
    3
 10
949.8304
 20
2105.4492
 11
950.16785
 21
2105.1005
  0
LINE
  8
0-2
  6
CONTINUOUS
 62
    3
 10
950.16785
 20
2105.1005
 11
950.50233
 21
2104.7118
  0
LINE
  8
0-2
  6
CONTINUOUS
 62
    3
 10
917.39939
 20
2102.7009
 11
917.46744
 21
2103.1331
  0
LINE
  8
0-2
  6
CONTINUOUS
 62
    3
 10
917.46744
 20
2103.1331
 11
917.56394
 21
2103.5355
  0
LINE
  8
0-2
  6
CONTINUOUS
 62
    3
 10
917.56394
 20
2103.5355
 11
917.68679
 21
2103.9094
  0
LINE
  8
0-2
  6
CONTINUOUS
 62
    3
 10
917.68679
 20
2103.9094
 11
917.83365
 21
2104.2558
  0
LINE
  8
0-2
  6
CONTINUOUS
 62
    3
 10
917.83365
 20
2104.2558
 11
918.00234
 21
2104.5757
  0
LINE
  8
0-2
  6
CONTINUOUS
 62
    3
 10
918.00234
 20
2104.5757
 11
918.19095
 21
2104.8707
  0
LINE
  8
0-2
  6
CONTINUOUS
 62
    3
 10
918.19095
 20
2104.8707
 11
918.39756
 21
2105.1416
  0
LINE
  8
0-2
  6
CONTINUOUS
 62
    3
 10
918.39756
 20
2105.1416
 11
918.62038
 21
2105.3888
  0
LINE
  8
0-2
  6
CONTINUOUS
 62
    3
 10
918.62038
 20
2105.3888
 11
918.85786
 21
2105.614
  0
LINE
  8
0-2
  6
CONTINUOUS
 62
    3
 10
918.85786
 20
2105.614
 11
919.10821
 21
2105.8174
  0
LINE
  8
0-2
  6
CONTINUOUS
 62
    3
 10
919.10821
 20
2105.8174
 11
919.37013
 21
2105.9997
  0
LINE
  8
0-2
  6
CONTINUOUS
 62
    3
 10
919.37013
 20
2105.9997
 11
919.64231
 21
2106.1621
  0
LINE
  8
0-2
  6
CONTINUOUS
 62
    3
 10
919.64231
 20
2106.1621
 11
919.9234
 21
2106.3046
  0
LINE
  8
0-2
  6
CONTINUOUS
 62
    3
 10
919.9234
 20
2106.3046
 11
920.21241
 21
2106.4278
  0
LINE
  8
0-2
  6
CONTINUOUS
 62
    3
 10
920.21241
 20
2106.4278
 11
920.50829
 21
2106.532
  0
LINE
  8
0-2
  6
CONTINUOUS
 62
    3
 10
920.50829
 20
2106.532
 11
920.81023
 21
2106.6181
  0
LINE
  8
0-2
  6
CONTINUOUS
 62
    3
 10
920.81023
 20
2106.6181
 11
921.1173
 21
2106.6856
  0
LINE
  8
0-2
  6
CONTINUOUS
 62
    3
 10
921.1173
 20
2106.6856
 11
921.42895
 21
2106.7354
  0
LINE
  8
0-2
  6
CONTINUOUS
 62
    3
 10
921.42895
 20
2106.7354
 11
921.74468
 21
2106.767
  0
LINE
  8
0-2
  6
CONTINUOUS
 62
    3
 10
921.82436
 20
2106.7636
 11
922.00214
 21
2106.7458
  0
LINE
  8
0-2
  6
CONTINUOUS
 62
    3
 10
922.00214
 20
2106.7458
 11
922.17684
 21
2106.7205
  0
LINE
  8
0-2
  6
CONTINUOUS
 62
    3
 10
922.17684
 20
2106.7205
 11
922.34844
 21
2106.6876
  0
LINE
  8
0-2
  6
CONTINUOUS
 62
    3
 10
922.34844
 20
2106.6876
 11
922.517
 21
2106.647
  0
LINE
  8
0-2
  6
CONTINUOUS
 62
    3
 10
922.517
 20
2106.647
 11
922.68254
 21
2106.5988
  0
LINE
  8
0-2
  6
CONTINUOUS
 62
    3
 10
922.68254
 20
2106.5988
 11
922.84505
 21
2106.5429
  0
LINE
  8
0-2
  6
CONTINUOUS
 62
    3
 10
922.84505
 20
2106.5429
 11
923.0044
 21
2106.4793
  0
LINE
  8
0-2
  6
CONTINUOUS
 62
    3
 10
923.0044
 20
2106.4793
 11
923.16072
 21
2106.408
  0
LINE
  8
0-2
  6
CONTINUOUS
 62
    3
 10
923.16072
 20
2106.408
 11
923.31395
 21
2106.3291
  0
LINE
  8
0-2
  6
CONTINUOUS
 62
    3
 10
849.9807
 20
2102.7009
 11
850.04157
 21
2103.1557
  0
LINE
  8
0-2
  6
CONTINUOUS
 62
    3
 10
850.04157
 20
2103.1557
 11
850.1059
 21
2103.5711
  0
LINE
  8
0-2
  6
CONTINUOUS
 62
    3
 10
850.1059
 20
2103.5711
 11
850.17389
 21
2103.9475
  0
LINE
  8
0-2
  6
CONTINUOUS
 62
    3
 10
850.17389
 20
2103.9475
 11
850.24533
 21
2104.2845
  0
LINE
  8
0-2
  6
CONTINUOUS
 62
    3
 10
850.24533
 20
2104.2845
 11
850.32031
 21
2104.5824
  0
LINE
  8
0-2
  6
CONTINUOUS
 62
    3
 10
850.32031
 20
2104.5824
 11
850.39887
 21
2104.841
  0
LINE
  8
0-2
  6
CONTINUOUS
 62
    3
 10
850.39887
 20
2104.841
 11
850.4809
 21
2105.0602
  0
LINE
  8
0-2
  6
CONTINUOUS
 62
    3
 10
850.4809
 20
2105.0602
 11
850.56651
 21
2105.2403
  0
LINE
  8
0-2
  6
CONTINUOUS
 62
    3
 10
850.56651
 20
2105.2403
 11
850.65559
 21
2105.3809
  0
LINE
  8
0-2
  6
CONTINUOUS
 62
    3
 10
861.04849
 20
2102.7009
 11
861.08221
 21
2103.0611
  0
LINE
  8
0-2
  6
CONTINUOUS
 62
    3
 10
861.08221
 20
2103.0611
 11
861.13788
 21
2103.4016
  0
LINE
  8
0-2
  6
CONTINUOUS
 62
    3
 10
861.13788
 20
2103.4016
 11
861.21298
 21
2103.7223
  0
LINE
  8
0-2
  6
CONTINUOUS
 62
    3
 10
861.21298
 20
2103.7223
 11
861.30565
 21
2104.0237
  0
LINE
  8
0-2
  6
CONTINUOUS
 62
    3
 10
861.30565
 20
2104.0237
 11
861.41365
 21
2104.305
  0
LINE
  8
0-2
  6
CONTINUOUS
 62
    3
 10
861.41365
 20
2104.305
 11
861.5349
 21
2104.5661
  0
LINE
  8
0-2
  6
CONTINUOUS
 62
    3
 10
861.5349
 20
2104.5661
 11
861.66716
 21
2104.8073
  0
LINE
  8
0-2
  6
CONTINUOUS
 62
    3
 10
861.66716
 20
2104.8073
 11
861.8082
 21
2105.0283
  0
LINE
  8
0-2
  6
CONTINUOUS
 62
    3
 10
861.8082
 20
2105.0283
 11
861.95592
 21
2105.2295
  0
LINE
  8
0-2
  6
CONTINUOUS
 62
    3
 10
861.95592
 20
2105.2295
 11
862.10816
 21
2105.4098
  0
LINE
  8
0-2
  6
CONTINUOUS
 62
    3
 10
862.10816
 20
2105.4098
 11
862.26274
 21
2105.5699
  0
LINE
  8
0-2
  6
CONTINUOUS
 62
    3
 10
862.26274
 20
2105.5699
 11
862.41764
 21
2105.7095
  0
LINE
  8
0-2
  6
CONTINUOUS
 62
    3
 10
862.41764
 20
2105.7095
 11
862.57056
 21
2105.8283
  0
LINE
  8
0-2
  6
CONTINUOUS
 62
    3
 10
862.57056
 20
2105.8283
 11
862.71939
 21
2105.9262
  0
LINE
  8
0-2
  6
CONTINUOUS
 62
    3
 10
876.2066
 20
2102.7009
 11
876.30706
 21
2103.1017
  0
LINE
  8
0-2
  6
CONTINUOUS
 62
    3
 10
876.30706
 20
2103.1017
 11
876.42948
 21
2103.4768
  0
LINE
  8
0-2
  6
CONTINUOUS
 62
    3
 10
876.42948
 20
2103.4768
 11
876.57281
 21
2103.827
  0
LINE
  8
0-2
  6
CONTINUOUS
 62
    3
 10
876.57281
 20
2103.827
 11
876.73624
 21
2104.1518
  0
LINE
  8
0-2
  6
CONTINUOUS
 62
    3
 10
876.73624
 20
2104.1518
 11
876.91885
 21
2104.452
  0
LINE
  8
0-2
  6
CONTINUOUS
 62
    3
 10
876.91885
 20
2104.452
 11
877.11971
 21
2104.7271
  0
LINE
  8
0-2
  6
CONTINUOUS
 62
    3
 10
877.11971
 20
2104.7271
 11
877.33808
 21
2104.9778
  0
LINE
  8
0-2
  6
CONTINUOUS
 62
    3
 10
877.33808
 20
2104.9778
 11
877.57302
 21
2105.2042
  0
LINE
  8
0-2
  6
CONTINUOUS
 62
    3
 10
877.57302
 20
2105.2042
 11
877.82362
 21
2105.4064
  0
LINE
  8
0-2
  6
CONTINUOUS
 62
    3
 10
877.82362
 20
2105.4064
 11
878.08912
 21
2105.5848
  0
LINE
  8
0-2
  6
CONTINUOUS
 62
    3
 10
878.08912
 20
2105.5848
 11
878.36848
 21
2105.7392
  0
LINE
  8
0-2
  6
CONTINUOUS
 62
    3
 10
878.36848
 20
2105.7392
 11
878.66095
 21
2105.8703
  0
LINE
  8
0-2
  6
CONTINUOUS
 62
    3
 10
878.66095
 20
2105.8703
 11
878.96555
 21
2105.978
  0
LINE
  8
0-2
  6
CONTINUOUS
 62
    3
 10
878.96555
 20
2105.978
 11
879.28153
 21
2106.0626
  0
LINE
  8
0-2
  6
CONTINUOUS
 62
    3
 10
895.11818
 20
2102.7009
 11
895.27023
 21
2103.121
  0
LINE
  8
0-2
  6
CONTINUOUS
 62
    3
 10
895.27023
 20
2103.121
 11
895.44826
 21
2103.5102
  0
LINE
  8
0-2
  6
CONTINUOUS
 62
    3
 10
895.44826
 20
2103.5102
 11
895.65017
 21
2103.8688
  0
LINE
  8
0-2
  6
CONTINUOUS
 62
    3
 10
895.65017
 20
2103.8688
 11
895.87386
 21
2104.1966
  0
LINE
  8
0-2
  6
CONTINUOUS
 62
    3
 10
895.87386
 20
2104.1966
 11
896.11709
 21
2104.4936
  0
LINE
  8
0-2
  6
CONTINUOUS
 62
    3
 10
896.11709
 20
2104.4936
 11
896.37752
 21
2104.7596
  0
LINE
  8
0-2
  6
CONTINUOUS
 62
    3
 10
896.37752
 20
2104.7596
 11
896.65305
 21
2104.9949
  0
LINE
  8
0-2
  6
CONTINUOUS
 62
    3
 10
896.65305
 20
2104.9949
 11
896.94107
 21
2105.2003
  0
LINE
  8
0-2
  6
CONTINUOUS
 62
    3
 10
896.94107
 20
2105.2003
 11
897.23935
 21
2105.3754
  0
LINE
  8
0-2
  6
CONTINUOUS
 62
    3
 10
897.23935
 20
2105.3754
 11
897.54531
 21
2105.5212
  0
LINE
  8
0-2
  6
CONTINUOUS
 62
    3
 10
897.54531
 20
2105.5212
 11
897.85647
 21
2105.6385
  0
LINE
  8
0-2
  6
CONTINUOUS
 62
    3
 10
897.85647
 20
2105.6385
 11
898.1701
 21
2105.7278
  0
LINE
  8
0-2
  6
CONTINUOUS
 62
    3
 10
898.1701
 20
2105.7278
 11
898.48361
 21
2105.7897
  0
LINE
  8
0-2
  6
CONTINUOUS
 62
    3
 10
898.48361
 20
2105.7897
 11
898.79433
 21
2105.8255
  0
LINE
  8
0-2
  6
CONTINUOUS
 62
    3
 10
898.79433
 20
2105.8255
 11
899.09936
 21
2105.8362
  0
LINE
  8
0-2
  6
CONTINUOUS
 62
    3
 10
899.09936
 20
2105.8362
 11
899.39592
 21
2105.8231
  0
LINE
  8
0-2
  6
CONTINUOUS
 62
    3
 10
899.39592
 20
2105.8231
 11
899.68121
 21
2105.7874
  0
LINE
  8
0-2
  6
CONTINUOUS
 62
    3
 10
899.68121
 20
2105.7874
 11
899.95216
 21
2105.7303
  0
LINE
  8
0-2
  6
CONTINUOUS
 62
    3
 10
899.95216
 20
2105.7303
 11
900.20579
 21
2105.6536
  0
LINE
  8
0-2
  6
CONTINUOUS
 62
    3
 10
849.9807
 20
2102.7009
 11
844.99986
 21
2102.7009
  0
LINE
  8
0-2
  6
CONTINUOUS
 62
    3
 10
801.19546
 20
2152.7008
 11
849.9807
 21
2102.7009
  0
LINE
  8
0-2
  6
CONTINUOUS
 62
    3
 10
853.1989
 20
2102.7009
 11
805.19854
 21
2152.7008
  0
LINE
  8
0-2
  6
CONTINUOUS
 62
    3
 10
814.96276
 20
2152.7008
 11
861.04849
 21
2102.7009
  0
LINE
  8
0-2
  6
CONTINUOUS
 62
    3
 10
861.04849
 20
2102.7009
 11
853.1989
 21
2102.7009
  0
LINE
  8
0-2
  6
CONTINUOUS
 62
    3
 10
865.66121
 20
2102.7009
 11
820.7004
 21
2152.7008
  0
LINE
  8
0-2
  6
CONTINUOUS
 62
    3
 10
876.2066
 20
2102.7009
 11
865.66121
 21
2102.7009
  0
LINE
  8
0-2
  6
CONTINUOUS
 62
    3
 10
833.81793
 20
2152.7008
 11
876.2066
 21
2102.7009
  0
LINE
  8
0-2
  6
CONTINUOUS
 62
    3
 10
882.11398
 20
2102.7009
 11
841.16602
 21
2152.7008
  0
LINE
  8
0-2
  6
CONTINUOUS
 62
    3
 10
895.12665
 20
2102.7009
 11
882.11398
 21
2102.7009
  0
LINE
  8
0-2
  6
CONTINUOUS
 62
    3
 10
857.35267
 20
2152.7008
 11
895.12665
 21
2102.7009
  0
LINE
  8
0-2
  6
CONTINUOUS
 62
    3
 10
902.20083
 20
2102.7009
 11
866.15225
 21
2152.7008
  0
LINE
  8
0-2
  6
CONTINUOUS
 62
    3
 10
917.39939
 20
2102.7009
 11
902.20083
 21
2102.7009
  0
LINE
  8
0-2
  6
CONTINUOUS
 62
    3
 10
885.05777
 20
2152.7008
 11
917.39939
 21
2102.7009
  0
LINE
  8
0-2
  6
CONTINUOUS
 62
    3
 10
925.48721
 20
2102.7009
 11
895.11818
 21
2152.7008
  0
LINE
  8
0-2
  6
CONTINUOUS
 62
    3
 10
942.5425
 20
2102.7009
 11
925.48721
 21
2102.7009
  0
LINE
  8
0-2
  6
CONTINUOUS
 62
    3
 10
951.46883
 20
2102.7009
 11
927.43685
 21
2152.7008
  0
LINE
  8
0-2
  6
CONTINUOUS
 62
    3
 10
970.01172
 20
2102.7009
 11
951.46883
 21
2102.7009
  0
LINE
  8
0-2
  6
CONTINUOUS
 62
    3
 10
950.50233
 20
2152.7008
 11
970.01172
 21
2102.7009
  0
LINE
  8
0-2
  6
CONTINUOUS
 62
    3
 10
962.40857
 20
2152.7008
 11
979.58343
 21
2102.7009
  0
LINE
  8
0-2
  6
CONTINUOUS
 62
    3
 10
999.2124
 20
2102.7009
 11
979.58343
 21
2102.7009
  0
LINE
  8
0-2
  6
CONTINUOUS
 62
    3
 10
999.2124
 20
2102.7009
 11
986.82513
 21
2152.7008
  0
LINE
  8
0-2
  6
CONTINUOUS
 62
    3
 10
999.27655
 20
2152.7008
 11
1009.2224
 21
2102.7009
  0
LINE
  8
0-2
  6
CONTINUOUS
 62
    3
 10
1029.5125
 20
2102.7009
 11
1009.2224
 21
2102.7009
  0
LINE
  8
0-2
  6
CONTINUOUS
 62
    3
 10
1029.5125
 20
2102.7009
 11
1024.5156
 21
2152.7008
  0
LINE
  8
0-2
  6
CONTINUOUS
 62
    3
 10
1039.7439
 20
2102.7009
 11
1037.2424
 21
2152.7008
  0
LINE
  8
0-2
  6
CONTINUOUS
 62
    3
 10
1050
 20
2102.7009
 11
1039.7439
 21
2102.7009
  0
LINE
  8
0-2
  6
CONTINUOUS
 62
    3
 10
1305.0001
 20
2152.7008
 11
1255.0002
 21
2102.7009
  0
LINE
  8
0-2
  6
CONTINUOUS
 62
    3
 10
1094.4236
 20
2106.8336
 11
1094.0121
 21
2106.7235
  0
LINE
  8
0-2
  6
CONTINUOUS
 62
    3
 10
1094.0121
 20
2106.7235
 11
1093.6255
 21
2106.5738
  0
LINE
  8
0-2
  6
CONTINUOUS
 62
    3
 10
1093.6255
 20
2106.5738
 11
1093.2636
 21
2106.387
  0
LINE
  8
0-2
  6
CONTINUOUS
 62
    3
 10
1093.2636
 20
2106.387
 11
1092.9259
 21
2106.1663
  0
LINE
  8
0-2
  6
CONTINUOUS
 62
    3
 10
1092.9259
 20
2106.1663
 11
1092.6119
 21
2105.9141
  0
LINE
  8
0-2
  6
CONTINUOUS
 62
    3
 10
1092.6119
 20
2105.9141
 11
1092.3211
 21
2105.6335
  0
LINE
  8
0-2
  6
CONTINUOUS
 62
    3
 10
1092.3211
 20
2105.6335
 11
1092.0531
 21
2105.3272
  0
LINE
  8
0-2
  6
CONTINUOUS
 62
    3
 10
1092.0531
 20
2105.3272
 11
1091.8074
 21
2104.9981
  0
LINE
  8
0-2
  6
CONTINUOUS
 62
    3
 10
1091.8074
 20
2104.9981
 11
1091.5838
 21
2104.649
  0
LINE
  8
0-2
  6
CONTINUOUS
 62
    3
 10
1091.5838
 20
2104.649
 11
1091.3813
 21
2104.2827
  0
LINE
  8
0-2
  6
CONTINUOUS
 62
    3
 10
1091.3813
 20
2104.2827
 11
1091.2002
 21
2103.9017
  0
LINE
  8
0-2
  6
CONTINUOUS
 62
    3
 10
1091.2002
 20
2103.9017
 11
1091.0394
 21
2103.5092
  0
LINE
  8
0-2
  6
CONTINUOUS
 62
    3
 10
1091.0394
 20
2103.5092
 11
1090.8986
 21
2103.1081
  0
LINE
  8
0-2
  6
CONTINUOUS
 62
    3
 10
1090.8986
 20
2103.1081
 11
1090.7776
 21
2102.7009
  0
LINE
  8
0-2
  6
CONTINUOUS
 62
    3
 10
1096.6841
 20
2106.8559
 11
1097.1601
 21
2106.703
  0
LINE
  8
0-2
  6
CONTINUOUS
 62
    3
 10
1097.1601
 20
2106.703
 11
1097.6064
 21
2106.5221
  0
LINE
  8
0-2
  6
CONTINUOUS
 62
    3
 10
1097.6064
 20
2106.5221
 11
1098.0241
 21
2106.3152
  0
LINE
  8
0-2
  6
CONTINUOUS
 62
    3
 10
1098.0241
 20
2106.3152
 11
1098.4127
 21
2106.0831
  0
LINE
  8
0-2
  6
CONTINUOUS
 62
    3
 10
1098.4127
 20
2106.0831
 11
1098.7729
 21
2105.8278
  0
LINE
  8
0-2
  6
CONTINUOUS
 62
    3
 10
1098.7729
 20
2105.8278
 11
1099.1052
 21
2105.5501
  0
LINE
  8
0-2
  6
CONTINUOUS
 62
    3
 10
1099.1052
 20
2105.5501
 11
1099.4095
 21
2105.2517
  0
LINE
  8
0-2
  6
CONTINUOUS
 62
    3
 10
1099.4095
 20
2105.2517
 11
1099.6862
 21
2104.9343
  0
LINE
  8
0-2
  6
CONTINUOUS
 62
    3
 10
1099.6862
 20
2104.9343
 11
1099.936
 21
2104.5987
  0
LINE
  8
0-2
  6
CONTINUOUS
 62
    3
 10
1099.936
 20
2104.5987
 11
1100.1588
 21
2104.2466
  0
LINE
  8
0-2
  6
CONTINUOUS
 62
    3
 10
1100.1588
 20
2104.2466
 11
1100.355
 21
2103.8792
  0
LINE
  8
0-2
  6
CONTINUOUS
 62
    3
 10
1100.355
 20
2103.8792
 11
1100.525
 21
2103.4984
  0
LINE
  8
0-2
  6
CONTINUOUS
 62
    3
 10
1100.525
 20
2103.4984
 11
1100.669
 21
2103.1052
  0
LINE
  8
0-2
  6
CONTINUOUS
 62
    3
 10
1100.669
 20
2103.1052
 11
1100.7875
 21
2102.7009
  0
LINE
  8
0-2
  6
CONTINUOUS
 62
    3
 10
1120.4166
 20
2102.7009
 11
1120.8775
 21
2103.3722
  0
LINE
  8
0-2
  6
CONTINUOUS
 62
    3
 10
1120.8775
 20
2103.3722
 11
1121.3438
 21
2103.9692
  0
LINE
  8
0-2
  6
CONTINUOUS
 62
    3
 10
1121.3438
 20
2103.9692
 11
1121.8137
 21
2104.4963
  0
LINE
  8
0-2
  6
CONTINUOUS
 62
    3
 10
1121.8137
 20
2104.4963
 11
1122.2851
 21
2104.9575
  0
LINE
  8
0-2
  6
CONTINUOUS
 62
    3
 10
1122.2851
 20
2104.9575
 11
1122.7565
 21
2105.3569
  0
LINE
  8
0-2
  6
CONTINUOUS
 62
    3
 10
1122.7565
 20
2105.3569
 11
1123.2259
 21
2105.6986
  0
LINE
  8
0-2
  6
CONTINUOUS
 62
    3
 10
1123.2259
 20
2105.6986
 11
1123.6915
 21
2105.9871
  0
LINE
  8
0-2
  6
CONTINUOUS
 62
    3
 10
1123.6915
 20
2105.9871
 11
1124.1514
 21
2106.2261
  0
LINE
  8
0-2
  6
CONTINUOUS
 62
    3
 10
1124.1514
 20
2106.2261
 11
1124.6039
 21
2106.4199
  0
LINE
  8
0-2
  6
CONTINUOUS
 62
    3
 10
1124.6039
 20
2106.4199
 11
1125.047
 21
2106.5726
  0
LINE
  8
0-2
  6
CONTINUOUS
 62
    3
 10
1125.047
 20
2106.5726
 11
1125.4791
 21
2106.6886
  0
LINE
  8
0-2
  6
CONTINUOUS
 62
    3
 10
1125.4791
 20
2106.6886
 11
1125.898
 21
2106.7715
  0
LINE
  8
0-2
  6
CONTINUOUS
 62
    3
 10
1125.898
 20
2106.7715
 11
1126.3023
 21
2106.8262
  0
LINE
  8
0-2
  6
CONTINUOUS
 62
    3
 10
1126.3023
 20
2106.8262
 11
1126.6898
 21
2106.8559
  0
LINE
  8
0-2
  6
CONTINUOUS
 62
    3
 10
1129.9884
 20
2102.7009
 11
1129.9745
 21
2103.1836
  0
LINE
  8
0-2
  6
CONTINUOUS
 62
    3
 10
1129.9745
 20
2103.1836
 11
1129.9327
 21
2103.63
  0
LINE
  8
0-2
  6
CONTINUOUS
 62
    3
 10
1129.9327
 20
2103.63
 11
1129.8617
 21
2104.0415
  0
LINE
  8
0-2
  6
CONTINUOUS
 62
    3
 10
1129.8617
 20
2104.0415
 11
1129.7595
 21
2104.4203
  0
LINE
  8
0-2
  6
CONTINUOUS
 62
    3
 10
1129.7595
 20
2104.4203
 11
1129.6249
 21
2104.7685
  0
LINE
  8
0-2
  6
CONTINUOUS
 62
    3
 10
1129.6249
 20
2104.7685
 11
1129.456
 21
2105.0882
  0
LINE
  8
0-2
  6
CONTINUOUS
 62
    3
 10
1129.456
 20
2105.0882
 11
1129.2515
 21
2105.3809
  0
LINE
  8
0-2
  6
CONTINUOUS
 62
    3
 10
1129.2515
 20
2105.3809
 11
1129.0098
 21
2105.6494
  0
LINE
  8
0-2
  6
CONTINUOUS
 62
    3
 10
1129.0098
 20
2105.6494
 11
1128.7292
 21
2105.8951
  0
LINE
  8
0-2
  6
CONTINUOUS
 62
    3
 10
1128.7292
 20
2105.8951
 11
1128.4082
 21
2106.1202
  0
LINE
  8
0-2
  6
CONTINUOUS
 62
    3
 10
1128.4082
 20
2106.1202
 11
1128.0454
 21
2106.3271
  0
LINE
  8
0-2
  6
CONTINUOUS
 62
    3
 10
1128.0454
 20
2106.3271
 11
1127.6392
 21
2106.5171
  0
LINE
  8
0-2
  6
CONTINUOUS
 62
    3
 10
1127.6392
 20
2106.5171
 11
1127.1876
 21
2106.6931
  0
LINE
  8
0-2
  6
CONTINUOUS
 62
    3
 10
1127.1876
 20
2106.6931
 11
1126.6898
 21
2106.8559
  0
LINE
  8
0-2
  6
CONTINUOUS
 62
    3
 10
1157.4576
 20
2102.7009
 11
1157.2224
 21
2103.268
  0
LINE
  8
0-2
  6
CONTINUOUS
 62
    3
 10
1157.2224
 20
2103.268
 11
1156.9776
 21
2103.7824
  0
LINE
  8
0-2
  6
CONTINUOUS
 62
    3
 10
1156.9776
 20
2103.7824
 11
1156.7233
 21
2104.2466
  0
LINE
  8
0-2
  6
CONTINUOUS
 62
    3
 10
1156.7233
 20
2104.2466
 11
1156.4595
 21
2104.6633
  0
LINE
  8
0-2
  6
CONTINUOUS
 62
    3
 10
1156.4595
 20
2104.6633
 11
1156.187
 21
2105.0347
  0
LINE
  8
0-2
  6
CONTINUOUS
 62
    3
 10
1156.187
 20
2105.0347
 11
1155.9055
 21
2105.3638
  0
LINE
  8
0-2
  6
CONTINUOUS
 62
    3
 10
1155.9055
 20
2105.3638
 11
1155.6155
 21
2105.6528
  0
LINE
  8
0-2
  6
CONTINUOUS
 62
    3
 10
1155.6155
 20
2105.6528
 11
1155.3171
 21
2105.9042
  0
LINE
  8
0-2
  6
CONTINUOUS
 62
    3
 10
1155.3171
 20
2105.9042
 11
1155.0109
 21
2106.1207
  0
LINE
  8
0-2
  6
CONTINUOUS
 62
    3
 10
1155.0109
 20
2106.1207
 11
1154.6967
 21
2106.3048
  0
LINE
  8
0-2
  6
CONTINUOUS
 62
    3
 10
1154.6967
 20
2106.3048
 11
1154.3751
 21
2106.4587
  0
LINE
  8
0-2
  6
CONTINUOUS
 62
    3
 10
1154.3751
 20
2106.4587
 11
1154.0459
 21
2106.5857
  0
LINE
  8
0-2
  6
CONTINUOUS
 62
    3
 10
1154.0459
 20
2106.5857
 11
1153.7097
 21
2106.6874
  0
LINE
  8
0-2
  6
CONTINUOUS
 62
    3
 10
1153.7097
 20
2106.6874
 11
1153.3668
 21
2106.767
  0
LINE
  8
0-2
  6
CONTINUOUS
 62
    3
 10
1152.6126
 20
2106.767
 11
1152.255
 21
2106.6992
  0
LINE
  8
0-2
  6
CONTINUOUS
 62
    3
 10
1152.255
 20
2106.6992
 11
1151.9002
 21
2106.5911
  0
LINE
  8
0-2
  6
CONTINUOUS
 62
    3
 10
1151.9002
 20
2106.5911
 11
1151.5483
 21
2106.4429
  0
LINE
  8
0-2
  6
CONTINUOUS
 62
    3
 10
1151.5483
 20
2106.4429
 11
1151.1992
 21
2106.2546
  0
LINE
  8
0-2
  6
CONTINUOUS
 62
    3
 10
1151.1992
 20
2106.2546
 11
1150.8531
 21
2106.0265
  0
LINE
  8
0-2
  6
CONTINUOUS
 62
    3
 10
1150.8531
 20
2106.0265
 11
1150.5098
 21
2105.758
  0
LINE
  8
0-2
  6
CONTINUOUS
 62
    3
 10
1150.5098
 20
2105.758
 11
1150.1696
 21
2105.4492
  0
LINE
  8
0-2
  6
CONTINUOUS
 62
    3
 10
1150.1696
 20
2105.4492
 11
1149.8321
 21
2105.1005
  0
LINE
  8
0-2
  6
CONTINUOUS
 62
    3
 10
1149.8321
 20
2105.1005
 11
1149.4977
 21
2104.7118
  0
LINE
  8
0-2
  6
CONTINUOUS
 62
    3
 10
1182.6005
 20
2102.7009
 11
1182.5326
 21
2103.1331
  0
LINE
  8
0-2
  6
CONTINUOUS
 62
    3
 10
1182.5326
 20
2103.1331
 11
1182.436
 21
2103.5355
  0
LINE
  8
0-2
  6
CONTINUOUS
 62
    3
 10
1182.436
 20
2103.5355
 11
1182.3133
 21
2103.9094
  0
LINE
  8
0-2
  6
CONTINUOUS
 62
    3
 10
1182.3133
 20
2103.9094
 11
1182.1664
 21
2104.2558
  0
LINE
  8
0-2
  6
CONTINUOUS
 62
    3
 10
1182.1664
 20
2104.2558
 11
1181.9978
 21
2104.5757
  0
LINE
  8
0-2
  6
CONTINUOUS
 62
    3
 10
1181.9978
 20
2104.5757
 11
1181.809
 21
2104.8707
  0
LINE
  8
0-2
  6
CONTINUOUS
 62
    3
 10
1181.809
 20
2104.8707
 11
1181.6024
 21
2105.1416
  0
LINE
  8
0-2
  6
CONTINUOUS
 62
    3
 10
1181.6024
 20
2105.1416
 11
1181.3795
 21
2105.3888
  0
LINE
  8
0-2
  6
CONTINUOUS
 62
    3
 10
1181.3795
 20
2105.3888
 11
1181.1421
 21
2105.614
  0
LINE
  8
0-2
  6
CONTINUOUS
 62
    3
 10
1181.1421
 20
2105.614
 11
1180.8917
 21
2105.8174
  0
LINE
  8
0-2
  6
CONTINUOUS
 62
    3
 10
1180.8917
 20
2105.8174
 11
1180.6298
 21
2105.9997
  0
LINE
  8
0-2
  6
CONTINUOUS
 62
    3
 10
1180.6298
 20
2105.9997
 11
1180.3577
 21
2106.1621
  0
LINE
  8
0-2
  6
CONTINUOUS
 62
    3
 10
1180.3577
 20
2106.1621
 11
1180.0767
 21
2106.3046
  0
LINE
  8
0-2
  6
CONTINUOUS
 62
    3
 10
1180.0767
 20
2106.3046
 11
1179.7876
 21
2106.4278
  0
LINE
  8
0-2
  6
CONTINUOUS
 62
    3
 10
1179.7876
 20
2106.4278
 11
1179.4917
 21
2106.532
  0
LINE
  8
0-2
  6
CONTINUOUS
 62
    3
 10
1179.4917
 20
2106.532
 11
1179.1898
 21
2106.6181
  0
LINE
  8
0-2
  6
CONTINUOUS
 62
    3
 10
1179.1898
 20
2106.6181
 11
1178.8828
 21
2106.6856
  0
LINE
  8
0-2
  6
CONTINUOUS
 62
    3
 10
1178.8828
 20
2106.6856
 11
1178.571
 21
2106.7354
  0
LINE
  8
0-2
  6
CONTINUOUS
 62
    3
 10
1178.571
 20
2106.7354
 11
1178.2554
 21
2106.767
  0
LINE
  8
0-2
  6
CONTINUOUS
 62
    3
 10
1178.1757
 20
2106.7636
 11
1177.9979
 21
2106.7458
  0
LINE
  8
0-2
  6
CONTINUOUS
 62
    3
 10
1177.9979
 20
2106.7458
 11
1177.8232
 21
2106.7205
  0
LINE
  8
0-2
  6
CONTINUOUS
 62
    3
 10
1177.8232
 20
2106.7205
 11
1177.6515
 21
2106.6876
  0
LINE
  8
0-2
  6
CONTINUOUS
 62
    3
 10
1177.6515
 20
2106.6876
 11
1177.483
 21
2106.647
  0
LINE
  8
0-2
  6
CONTINUOUS
 62
    3
 10
1177.483
 20
2106.647
 11
1177.3174
 21
2106.5988
  0
LINE
  8
0-2
  6
CONTINUOUS
 62
    3
 10
1177.3174
 20
2106.5988
 11
1177.155
 21
2106.5429
  0
LINE
  8
0-2
  6
CONTINUOUS
 62
    3
 10
1177.155
 20
2106.5429
 11
1176.9957
 21
2106.4793
  0
LINE
  8
0-2
  6
CONTINUOUS
 62
    3
 10
1176.9957
 20
2106.4793
 11
1176.8394
 21
2106.408
  0
LINE
  8
0-2
  6
CONTINUOUS
 62
    3
 10
1176.8394
 20
2106.408
 11
1176.686
 21
2106.3291
  0
LINE
  8
0-2
  6
CONTINUOUS
 62
    3
 10
1250.0194
 20
2102.7009
 11
1249.9585
 21
2103.1557
  0
LINE
  8
0-2
  6
CONTINUOUS
 62
    3
 10
1249.9585
 20
2103.1557
 11
1249.894
 21
2103.5711
  0
LINE
  8
0-2
  6
CONTINUOUS
 62
    3
 10
1249.894
 20
2103.5711
 11
1249.8262
 21
2103.9475
  0
LINE
  8
0-2
  6
CONTINUOUS
 62
    3
 10
1249.8262
 20
2103.9475
 11
1249.7547
 21
2104.2845
  0
LINE
  8
0-2
  6
CONTINUOUS
 62
    3
 10
1249.7547
 20
2104.2845
 11
1249.6797
 21
2104.5824
  0
LINE
  8
0-2
  6
CONTINUOUS
 62
    3
 10
1249.6797
 20
2104.5824
 11
1249.6012
 21
2104.841
  0
LINE
  8
0-2
  6
CONTINUOUS
 62
    3
 10
1249.6012
 20
2104.841
 11
1249.5192
 21
2105.0602
  0
LINE
  8
0-2
  6
CONTINUOUS
 62
    3
 10
1249.5192
 20
2105.0602
 11
1249.4335
 21
2105.2403
  0
LINE
  8
0-2
  6
CONTINUOUS
 62
    3
 10
1249.4335
 20
2105.2403
 11
1249.3445
 21
2105.3809
  0
LINE
  8
0-2
  6
CONTINUOUS
 62
    3
 10
1238.9515
 20
2102.7009
 11
1238.9178
 21
2103.0611
  0
LINE
  8
0-2
  6
CONTINUOUS
 62
    3
 10
1238.9178
 20
2103.0611
 11
1238.8622
 21
2103.4016
  0
LINE
  8
0-2
  6
CONTINUOUS
 62
    3
 10
1238.8622
 20
2103.4016
 11
1238.7869
 21
2103.7223
  0
LINE
  8
0-2
  6
CONTINUOUS
 62
    3
 10
1238.7869
 20
2103.7223
 11
1238.6944
 21
2104.0237
  0
LINE
  8
0-2
  6
CONTINUOUS
 62
    3
 10
1238.6944
 20
2104.0237
 11
1238.5863
 21
2104.305
  0
LINE
  8
0-2
  6
CONTINUOUS
 62
    3
 10
1238.5863
 20
2104.305
 11
1238.4652
 21
2104.5661
  0
LINE
  8
0-2
  6
CONTINUOUS
 62
    3
 10
1238.4652
 20
2104.5661
 11
1238.3329
 21
2104.8073
  0
LINE
  8
0-2
  6
CONTINUOUS
 62
    3
 10
1238.3329
 20
2104.8073
 11
1238.1919
 21
2105.0283
  0
LINE
  8
0-2
  6
CONTINUOUS
 62
    3
 10
1238.1919
 20
2105.0283
 11
1238.0441
 21
2105.2295
  0
LINE
  8
0-2
  6
CONTINUOUS
 62
    3
 10
1238.0441
 20
2105.2295
 11
1237.892
 21
2105.4098
  0
LINE
  8
0-2
  6
CONTINUOUS
 62
    3
 10
1237.892
 20
2105.4098
 11
1237.7372
 21
2105.5699
  0
LINE
  8
0-2
  6
CONTINUOUS
 62
    3
 10
1237.7372
 20
2105.5699
 11
1237.5824
 21
2105.7095
  0
LINE
  8
0-2
  6
CONTINUOUS
 62
    3
 10
1237.5824
 20
2105.7095
 11
1237.4295
 21
2105.8283
  0
LINE
  8
0-2
  6
CONTINUOUS
 62
    3
 10
1237.4295
 20
2105.8283
 11
1237.2807
 21
2105.9262
  0
LINE
  8
0-2
  6
CONTINUOUS
 62
    3
 10
1223.7935
 20
2102.7009
 11
1223.693
 21
2103.1017
  0
LINE
  8
0-2
  6
CONTINUOUS
 62
    3
 10
1223.693
 20
2103.1017
 11
1223.5706
 21
2103.4768
  0
LINE
  8
0-2
  6
CONTINUOUS
 62
    3
 10
1223.5706
 20
2103.4768
 11
1223.4272
 21
2103.827
  0
LINE
  8
0-2
  6
CONTINUOUS
 62
    3
 10
1223.4272
 20
2103.827
 11
1223.2638
 21
2104.1518
  0
LINE
  8
0-2
  6
CONTINUOUS
 62
    3
 10
1223.2638
 20
2104.1518
 11
1223.0812
 21
2104.452
  0
LINE
  8
0-2
  6
CONTINUOUS
 62
    3
 10
1223.0812
 20
2104.452
 11
1222.8803
 21
2104.7271
  0
LINE
  8
0-2
  6
CONTINUOUS
 62
    3
 10
1222.8803
 20
2104.7271
 11
1222.662
 21
2104.9778
  0
LINE
  8
0-2
  6
CONTINUOUS
 62
    3
 10
1222.662
 20
2104.9778
 11
1222.427
 21
2105.2042
  0
LINE
  8
0-2
  6
CONTINUOUS
 62
    3
 10
1222.427
 20
2105.2042
 11
1222.1764
 21
2105.4064
  0
LINE
  8
0-2
  6
CONTINUOUS
 62
    3
 10
1222.1764
 20
2105.4064
 11
1221.9109
 21
2105.5848
  0
LINE
  8
0-2
  6
CONTINUOUS
 62
    3
 10
1221.9109
 20
2105.5848
 11
1221.6316
 21
2105.7392
  0
LINE
  8
0-2
  6
CONTINUOUS
 62
    3
 10
1221.6316
 20
2105.7392
 11
1221.3391
 21
2105.8703
  0
LINE
  8
0-2
  6
CONTINUOUS
 62
    3
 10
1221.3391
 20
2105.8703
 11
1221.0344
 21
2105.978
  0
LINE
  8
0-2
  6
CONTINUOUS
 62
    3
 10
1221.0344
 20
2105.978
 11
1220.7185
 21
2106.0626
  0
LINE
  8
0-2
  6
CONTINUOUS
 62
    3
 10
1204.8819
 20
2102.7009
 11
1204.7298
 21
2103.121
  0
LINE
  8
0-2
  6
CONTINUOUS
 62
    3
 10
1204.7298
 20
2103.121
 11
1204.5518
 21
2103.5102
  0
LINE
  8
0-2
  6
CONTINUOUS
 62
    3
 10
1204.5518
 20
2103.5102
 11
1204.3499
 21
2103.8688
  0
LINE
  8
0-2
  6
CONTINUOUS
 62
    3
 10
1204.3499
 20
2103.8688
 11
1204.1262
 21
2104.1966
  0
LINE
  8
0-2
  6
CONTINUOUS
 62
    3
 10
1204.1262
 20
2104.1966
 11
1203.883
 21
2104.4936
  0
LINE
  8
0-2
  6
CONTINUOUS
 62
    3
 10
1203.883
 20
2104.4936
 11
1203.6225
 21
2104.7596
  0
LINE
  8
0-2
  6
CONTINUOUS
 62
    3
 10
1203.6225
 20
2104.7596
 11
1203.347
 21
2104.9949
  0
LINE
  8
0-2
  6
CONTINUOUS
 62
    3
 10
1203.347
 20
2104.9949
 11
1203.0589
 21
2105.2003
  0
LINE
  8
0-2
  6
CONTINUOUS
 62
    3
 10
1203.0589
 20
2105.2003
 11
1202.7606
 21
2105.3754
  0
LINE
  8
0-2
  6
CONTINUOUS
 62
    3
 10
1202.7606
 20
2105.3754
 11
1202.4546
 21
2105.5212
  0
LINE
  8
0-2
  6
CONTINUOUS
 62
    3
 10
1202.4546
 20
2105.5212
 11
1202.1436
 21
2105.6385
  0
LINE
  8
0-2
  6
CONTINUOUS
 62
    3
 10
1202.1436
 20
2105.6385
 11
1201.8298
 21
2105.7278
  0
LINE
  8
0-2
  6
CONTINUOUS
 62
    3
 10
1201.8298
 20
2105.7278
 11
1201.5163
 21
2105.7897
  0
LINE
  8
0-2
  6
CONTINUOUS
 62
    3
 10
1201.5163
 20
2105.7897
 11
1201.2058
 21
2105.8255
  0
LINE
  8
0-2
  6
CONTINUOUS
 62
    3
 10
1201.2058
 20
2105.8255
 11
1200.9007
 21
2105.8362
  0
LINE
  8
0-2
  6
CONTINUOUS
 62
    3
 10
1200.9007
 20
2105.8362
 11
1200.604
 21
2105.8231
  0
LINE
  8
0-2
  6
CONTINUOUS
 62
    3
 10
1200.604
 20
2105.8231
 11
1200.3188
 21
2105.7874
  0
LINE
  8
0-2
  6
CONTINUOUS
 62
    3
 10
1200.3188
 20
2105.7874
 11
1200.0479
 21
2105.7303
  0
LINE
  8
0-2
  6
CONTINUOUS
 62
    3
 10
1200.0479
 20
2105.7303
 11
1199.7943
 21
2105.6536
  0
LINE
  8
0-2
  6
CONTINUOUS
 62
    3
 10
1250.0194
 20
2102.7009
 11
1255.0002
 21
2102.7009
  0
LINE
  8
0-2
  6
CONTINUOUS
 62
    3
 10
1298.8046
 20
2152.7008
 11
1250.0194
 21
2102.7009
  0
LINE
  8
0-2
  6
CONTINUOUS
 62
    3
 10
1246.8012
 20
2102.7009
 11
1294.8014
 21
2152.7008
  0
LINE
  8
0-2
  6
CONTINUOUS
 62
    3
 10
1285.0373
 20
2152.7008
 11
1238.9515
 21
2102.7009
  0
LINE
  8
0-2
  6
CONTINUOUS
 62
    3
 10
1238.9515
 20
2102.7009
 11
1246.8012
 21
2102.7009
  0
LINE
  8
0-2
  6
CONTINUOUS
 62
    3
 10
1234.3388
 20
2102.7009
 11
1279.2995
 21
2152.7008
  0
LINE
  8
0-2
  6
CONTINUOUS
 62
    3
 10
1223.7935
 20
2102.7009
 11
1234.3388
 21
2102.7009
  0
LINE
  8
0-2
  6
CONTINUOUS
 62
    3
 10
1266.1821
 20
2152.7008
 11
1223.7935
 21
2102.7009
  0
LINE
  8
0-2
  6
CONTINUOUS
 62
    3
 10
1217.8861
 20
2102.7009
 11
1258.8339
 21
2152.7008
  0
LINE
  8
0-2
  6
CONTINUOUS
 62
    3
 10
1204.8733
 20
2102.7009
 11
1217.8861
 21
2102.7009
  0
LINE
  8
0-2
  6
CONTINUOUS
 62
    3
 10
1242.6474
 20
2152.7008
 11
1204.8733
 21
2102.7009
  0
LINE
  8
0-2
  6
CONTINUOUS
 62
    3
 10
1197.7993
 20
2102.7009
 11
1233.8478
 21
2152.7008
  0
LINE
  8
0-2
  6
CONTINUOUS
 62
    3
 10
1182.6005
 20
2102.7009
 11
1197.7993
 21
2102.7009
  0
LINE
  8
0-2
  6
CONTINUOUS
 62
    3
 10
1214.9422
 20
2152.7008
 11
1182.6005
 21
2102.7009
  0
LINE
  8
0-2
  6
CONTINUOUS
 62
    3
 10
1174.5127
 20
2102.7009
 11
1204.8819
 21
2152.7008
  0
LINE
  8
0-2
  6
CONTINUOUS
 62
    3
 10
1157.4576
 20
2102.7009
 11
1174.5127
 21
2102.7009
  0
LINE
  8
0-2
  6
CONTINUOUS
 62
    3
 10
1148.5312
 20
2102.7009
 11
1172.5631
 21
2152.7008
  0
LINE
  8
0-2
  6
CONTINUOUS
 62
    3
 10
1129.9884
 20
2102.7009
 11
1148.5312
 21
2102.7009
  0
LINE
  8
0-2
  6
CONTINUOUS
 62
    3
 10
1149.4977
 20
2152.7008
 11
1129.9884
 21
2102.7009
  0
LINE
  8
0-2
  6
CONTINUOUS
 62
    3
 10
1137.5915
 20
2152.7008
 11
1120.4166
 21
2102.7009
  0
LINE
  8
0-2
  6
CONTINUOUS
 62
    3
 10
1100.7875
 20
2102.7009
 11
1120.4166
 21
2102.7009
  0
LINE
  8
0-2
  6
CONTINUOUS
 62
    3
 10
1100.7875
 20
2102.7009
 11
1113.1749
 21
2152.7008
  0
LINE
  8
0-2
  6
CONTINUOUS
 62
    3
 10
1100.7234
 20
2152.7008
 11
1090.7776
 21
2102.7009
  0
LINE
  8
0-2
  6
CONTINUOUS
 62
    3
 10
1070.4874
 20
2102.7009
 11
1090.7776
 21
2102.7009
  0
LINE
  8
0-2
  6
CONTINUOUS
 62
    3
 10
1070.4874
 20
2102.7009
 11
1075.4843
 21
2152.7008
  0
LINE
  8
0-2
  6
CONTINUOUS
 62
    3
 10
1060.256
 20
2102.7009
 11
1062.7575
 21
2152.7008
  0
LINE
  8
0-2
  6
CONTINUOUS
 62
    3
 10
1050
 20
2102.7009
 11
1060.256
 21
2102.7009
  0
LINE
  8
0-2
  6
CONTINUOUS
 62
    3
 10
916.3333
 20
2152.7008
 11
942.54256
 21
2102.7009
  0
LINE
  8
0-2
  6
CONTINUOUS
 62
    3
 10
1183.6668
 20
2152.7008
 11
1157.4574
 21
2102.7009
  0
LINE
  8
0-2
  6
CONTINUOUS
 62
    3
 10
946.96752
 20
2102.7009
 11
946.96752
 21
2027.7011
  0
LINE
  8
0-2
  6
CONTINUOUS
 62
    3
 10
926.96752
 20
2102.7009
 11
926.96752
 21
2027.7011
  0
LINE
  8
0-2
  6
CONTINUOUS
 62
    3
 10
1153.0325
 20
2102.7009
 11
1153.0325
 21
2027.7011
  0
LINE
  8
0-2
  6
CONTINUOUS
 62
    3
 10
1173.0325
 20
2102.7009
 11
1173.0325
 21
2027.7011
  0
LINE
  8
0-8
  6
CONTINUOUS
 62
    7
 10
580.00021
 20
1987.7007
 11
580.00021
 21
2557.7011
  0
LINE
  8
0-8
  6
CONTINUOUS
 62
    7
 10
718.63196
 20
1987.7011
 11
580.00021
 21
1987.7011
  0
LINE
  8
0-2
  6
CONTINUOUS
 62
    3
 10
946.63323
 20
2478.6347
 11
946.72466
 21
2478.6283
  0
LINE
  8
0-2
  6
CONTINUOUS
 62
    3
 10
946.72466
 20
2478.6283
 11
946.81423
 21
2478.6236
  0
LINE
  8
0-2
  6
CONTINUOUS
 62
    3
 10
946.81423
 20
2478.6236
 11
946.90183
 21
2478.6204
  0
LINE
  8
0-2
  6
CONTINUOUS
 62
    3
 10
946.90183
 20
2478.6204
 11
946.9875
 21
2478.6186
  0
LINE
  8
0-2
  6
CONTINUOUS
 62
    3
 10
946.9875
 20
2478.6186
 11
947.07132
 21
2478.6186
  0
LINE
  8
0-2
  6
CONTINUOUS
 62
    3
 10
947.07132
 20
2478.6186
 11
947.15317
 21
2478.6204
  0
LINE
  8
0-2
  6
CONTINUOUS
 62
    3
 10
947.15317
 20
2478.6204
 11
947.23321
 21
2478.6236
  0
LINE
  8
0-2
  6
CONTINUOUS
 62
    3
 10
947.23321
 20
2478.6236
 11
947.31128
 21
2478.6283
  0
LINE
  8
0-2
  6
CONTINUOUS
 62
    3
 10
947.31128
 20
2478.6283
 11
947.38743
 21
2478.6347
  0
LINE
  8
0-2
  6
CONTINUOUS
 62
    3
 10
1003.3159
 20
2478.5461
 11
1003.5608
 21
2478.531
  0
LINE
  8
0-2
  6
CONTINUOUS
 62
    3
 10
1003.5608
 20
2478.531
 11
1003.8073
 21
2478.5204
  0
LINE
  8
0-2
  6
CONTINUOUS
 62
    3
 10
1003.8073
 20
2478.5204
 11
1004.0553
 21
2478.5142
  0
LINE
  8
0-2
  6
CONTINUOUS
 62
    3
 10
1004.0553
 20
2478.5142
 11
1004.3049
 21
2478.5125
  0
LINE
  8
0-2
  6
CONTINUOUS
 62
    3
 10
1004.3049
 20
2478.5125
 11
1004.5561
 21
2478.515
  0
LINE
  8
0-2
  6
CONTINUOUS
 62
    3
 10
1004.5561
 20
2478.515
 11
1004.8088
 21
2478.5214
  0
LINE
  8
0-2
  6
CONTINUOUS
 62
    3
 10
1004.8088
 20
2478.5214
 11
1005.063
 21
2478.5328
  0
LINE
  8
0-2
  6
CONTINUOUS
 62
    3
 10
1005.063
 20
2478.5328
 11
1005.3189
 21
2478.5481
  0
LINE
  8
0-2
  6
CONTINUOUS
 62
    3
 10
1005.3189
 20
2478.5481
 11
1005.5763
 21
2478.5682
  0
LINE
  8
0-2
  6
CONTINUOUS
 62
    3
 10
1096.6841
 20
2478.5461
 11
1096.4393
 21
2478.531
  0
LINE
  8
0-2
  6
CONTINUOUS
 62
    3
 10
1096.4393
 20
2478.531
 11
1096.1928
 21
2478.5204
  0
LINE
  8
0-2
  6
CONTINUOUS
 62
    3
 10
1096.1928
 20
2478.5204
 11
1095.9446
 21
2478.5142
  0
LINE
  8
0-2
  6
CONTINUOUS
 62
    3
 10
1095.9446
 20
2478.5142
 11
1095.6951
 21
2478.5125
  0
LINE
  8
0-2
  6
CONTINUOUS
 62
    3
 10
1095.6951
 20
2478.5125
 11
1095.4438
 21
2478.515
  0
LINE
  8
0-2
  6
CONTINUOUS
 62
    3
 10
1095.4438
 20
2478.515
 11
1095.1912
 21
2478.5214
  0
LINE
  8
0-2
  6
CONTINUOUS
 62
    3
 10
1095.1912
 20
2478.5214
 11
1094.9371
 21
2478.5328
  0
LINE
  8
0-2
  6
CONTINUOUS
 62
    3
 10
1094.9371
 20
2478.5328
 11
1094.6811
 21
2478.5481
  0
LINE
  8
0-2
  6
CONTINUOUS
 62
    3
 10
1094.6811
 20
2478.5481
 11
1094.4236
 21
2478.5682
  0
LINE
  8
0-2
  6
CONTINUOUS
 62
    3
 10
1178.1757
 20
2478.6384
 11
1177.9979
 21
2478.656
  0
LINE
  8
0-2
  6
CONTINUOUS
 62
    3
 10
1177.9979
 20
2478.656
 11
1177.8232
 21
2478.6812
  0
LINE
  8
0-2
  6
CONTINUOUS
 62
    3
 10
1177.8232
 20
2478.6812
 11
1177.6515
 21
2478.7144
  0
LINE
  8
0-2
  6
CONTINUOUS
 62
    3
 10
1177.6515
 20
2478.7144
 11
1177.483
 21
2478.755
  0
LINE
  8
0-2
  6
CONTINUOUS
 62
    3
 10
1177.483
 20
2478.755
 11
1177.3174
 21
2478.803
  0
LINE
  8
0-2
  6
CONTINUOUS
 62
    3
 10
1177.3174
 20
2478.803
 11
1177.155
 21
2478.8589
  0
LINE
  8
0-2
  6
CONTINUOUS
 62
    3
 10
1177.155
 20
2478.8589
 11
1176.9957
 21
2478.9225
  0
LINE
  8
0-2
  6
CONTINUOUS
 62
    3
 10
1176.9957
 20
2478.9225
 11
1176.8394
 21
2478.9938
  0
LINE
  8
0-2
  6
CONTINUOUS
 62
    3
 10
1176.8394
 20
2478.9938
 11
1176.686
 21
2479.0727
  0
LINE
  8
0-2
  6
CONTINUOUS
 62
    3
 10
1153.3668
 20
2478.6347
 11
1153.2753
 21
2478.6283
  0
LINE
  8
0-2
  6
CONTINUOUS
 62
    3
 10
1153.2753
 20
2478.6283
 11
1153.1859
 21
2478.6236
  0
LINE
  8
0-2
  6
CONTINUOUS
 62
    3
 10
1153.1859
 20
2478.6236
 11
1153.0983
 21
2478.6204
  0
LINE
  8
0-2
  6
CONTINUOUS
 62
    3
 10
1153.0983
 20
2478.6204
 11
1153.0125
 21
2478.6186
  0
LINE
  8
0-2
  6
CONTINUOUS
 62
    3
 10
1153.0125
 20
2478.6186
 11
1152.9287
 21
2478.6186
  0
LINE
  8
0-2
  6
CONTINUOUS
 62
    3
 10
1152.9287
 20
2478.6186
 11
1152.8469
 21
2478.6204
  0
LINE
  8
0-2
  6
CONTINUOUS
 62
    3
 10
1152.8469
 20
2478.6204
 11
1152.7668
 21
2478.6236
  0
LINE
  8
0-2
  6
CONTINUOUS
 62
    3
 10
1152.7668
 20
2478.6236
 11
1152.6888
 21
2478.6283
  0
LINE
  8
0-2
  6
CONTINUOUS
 62
    3
 10
1152.6888
 20
2478.6283
 11
1152.6126
 21
2478.6347
  0
LINE
  8
0-2
  6
CONTINUOUS
 62
    3
 10
1003.3159
 20
2106.8559
 11
1003.5608
 21
2106.871
  0
LINE
  8
0-2
  6
CONTINUOUS
 62
    3
 10
1003.5608
 20
2106.871
 11
1003.8073
 21
2106.8814
  0
LINE
  8
0-2
  6
CONTINUOUS
 62
    3
 10
1003.8073
 20
2106.8814
 11
1004.0553
 21
2106.8878
  0
LINE
  8
0-2
  6
CONTINUOUS
 62
    3
 10
1004.0553
 20
2106.8878
 11
1004.3049
 21
2106.8895
  0
LINE
  8
0-2
  6
CONTINUOUS
 62
    3
 10
1004.3049
 20
2106.8895
 11
1004.5561
 21
2106.887
  0
LINE
  8
0-2
  6
CONTINUOUS
 62
    3
 10
1004.5561
 20
2106.887
 11
1004.8088
 21
2106.8804
  0
LINE
  8
0-2
  6
CONTINUOUS
 62
    3
 10
1004.8088
 20
2106.8804
 11
1005.063
 21
2106.8692
  0
LINE
  8
0-2
  6
CONTINUOUS
 62
    3
 10
1005.063
 20
2106.8692
 11
1005.3189
 21
2106.8536
  0
LINE
  8
0-2
  6
CONTINUOUS
 62
    3
 10
1005.3189
 20
2106.8536
 11
1005.5763
 21
2106.8339
  0
LINE
  8
0-2
  6
CONTINUOUS
 62
    3
 10
1096.6841
 20
2106.8559
 11
1096.4393
 21
2106.871
  0
LINE
  8
0-2
  6
CONTINUOUS
 62
    3
 10
1096.4393
 20
2106.871
 11
1096.1928
 21
2106.8814
  0
LINE
  8
0-2
  6
CONTINUOUS
 62
    3
 10
1096.1928
 20
2106.8814
 11
1095.9446
 21
2106.8878
  0
LINE
  8
0-2
  6
CONTINUOUS
 62
    3
 10
1095.9446
 20
2106.8878
 11
1095.6951
 21
2106.8895
  0
LINE
  8
0-2
  6
CONTINUOUS
 62
    3
 10
1095.6951
 20
2106.8895
 11
1095.4438
 21
2106.887
  0
LINE
  8
0-2
  6
CONTINUOUS
 62
    3
 10
1095.4438
 20
2106.887
 11
1095.1912
 21
2106.8804
  0
LINE
  8
0-2
  6
CONTINUOUS
 62
    3
 10
1095.1912
 20
2106.8804
 11
1094.9371
 21
2106.8692
  0
LINE
  8
0-2
  6
CONTINUOUS
 62
    3
 10
1094.9371
 20
2106.8692
 11
1094.6811
 21
2106.8536
  0
LINE
  8
0-2
  6
CONTINUOUS
 62
    3
 10
1094.6811
 20
2106.8536
 11
1094.4236
 21
2106.8339
  0
LINE
  8
0-2
  6
CONTINUOUS
 62
    3
 10
946.63323
 20
2106.767
 11
946.72466
 21
2106.7735
  0
LINE
  8
0-2
  6
CONTINUOUS
 62
    3
 10
946.72466
 20
2106.7735
 11
946.81423
 21
2106.7784
  0
LINE
  8
0-2
  6
CONTINUOUS
 62
    3
 10
946.81423
 20
2106.7784
 11
946.90183
 21
2106.7816
  0
LINE
  8
0-2
  6
CONTINUOUS
 62
    3
 10
946.90183
 20
2106.7816
 11
946.9875
 21
2106.7834
  0
LINE
  8
0-2
  6
CONTINUOUS
 62
    3
 10
946.9875
 20
2106.7834
 11
947.07132
 21
2106.7834
  0
LINE
  8
0-2
  6
CONTINUOUS
 62
    3
 10
947.07132
 20
2106.7834
 11
947.15317
 21
2106.7816
  0
LINE
  8
0-2
  6
CONTINUOUS
 62
    3
 10
947.15317
 20
2106.7816
 11
947.23321
 21
2106.7784
  0
LINE
  8
0-2
  6
CONTINUOUS
 62
    3
 10
947.23321
 20
2106.7784
 11
947.31128
 21
2106.7735
  0
LINE
  8
0-2
  6
CONTINUOUS
 62
    3
 10
947.31128
 20
2106.7735
 11
947.38743
 21
2106.767
  0
LINE
  8
0-2
  6
CONTINUOUS
 62
    3
 10
1153.3668
 20
2106.767
 11
1153.2753
 21
2106.7735
  0
LINE
  8
0-2
  6
CONTINUOUS
 62
    3
 10
1153.2753
 20
2106.7735
 11
1153.1859
 21
2106.7784
  0
LINE
  8
0-2
  6
CONTINUOUS
 62
    3
 10
1153.1859
 20
2106.7784
 11
1153.0983
 21
2106.7816
  0
LINE
  8
0-2
  6
CONTINUOUS
 62
    3
 10
1153.0983
 20
2106.7816
 11
1153.0125
 21
2106.7834
  0
LINE
  8
0-2
  6
CONTINUOUS
 62
    3
 10
1153.0125
 20
2106.7834
 11
1152.9287
 21
2106.7834
  0
LINE
  8
0-2
  6
CONTINUOUS
 62
    3
 10
1152.9287
 20
2106.7834
 11
1152.8469
 21
2106.7816
  0
LINE
  8
0-2
  6
CONTINUOUS
 62
    3
 10
1152.8469
 20
2106.7816
 11
1152.7668
 21
2106.7784
  0
LINE
  8
0-2
  6
CONTINUOUS
 62
    3
 10
1152.7668
 20
2106.7784
 11
1152.6888
 21
2106.7735
  0
LINE
  8
0-2
  6
CONTINUOUS
 62
    3
 10
1152.6888
 20
2106.7735
 11
1152.6126
 21
2106.767
  0
LINE
  8
0-8
  6
CONTINUOUS
 62
    7
 10
892.50002
 20
1953.8245
 11
1207.5
 21
1953.8244
  0
LINE
  8
0-8
  6
CONTINUOUS
 62
    7
 10
892.50002
 20
1953.8245
 11
892.50002
 21
1976.9399
  0
LINE
  8
0-8
  6
CONTINUOUS
 62
    7
 10
1207.5
 20
1976.9399
 11
1207.5
 21
1953.8244
  0
LINE
  8
0-8
  6
CONTINUOUS
 62
    7
 10
450.00027
 20
1482.1743
 11
450.00027
 21
1722.1743
  0
LINE
  8
0-8
  6
CONTINUOUS
 62
    7
 10
767.5009
 20
1482.1743
 11
450.00027
 21
1482.1743
  0
LINE
  8
0-8
  6
CONTINUOUS
 62
    7
 10
767.5009
 20
1667.1742
 11
450.00027
 21
1667.1742
  0
LINE
  8
0-8
  6
CONTINUOUS
 62
    7
 10
767.5009
 20
1722.1743
 11
450.00027
 21
1722.1743
  0
LINE
  8
0-2
  6
CONTINUOUS
 62
    3
 10
825.00004
 20
562.24405
 11
825.00004
 21
1012.244
  0
LINE
  8
0-2
  6
CONTINUOUS
 62
    3
 10
825.00004
 20
1012.244
 11
1275
 21
1012.244
  0
LINE
  8
0-2
  6
CONTINUOUS
 62
    3
 10
1275
 20
1012.244
 11
1275
 21
562.24405
  0
LINE
  8
0-2
  6
CONTINUOUS
 62
    3
 10
1275
 20
562.24405
 11
825.00004
 21
562.24405
  0
LINE
  8
0-8
  6
CONTINUOUS
 62
    7
 10
450.0002
 20
377.24383
 11
450.0002
 21
1197.2438
  0
LINE
  8
0-8
  6
CONTINUOUS
 62
    7
 10
1650.0002
 20
562.24405
 11
1650.0002
 21
1012.244
  0
LINE
  8
0-8
  6
CONTINUOUS
 62
    7
 10
825.00041
 20
1252.8018
 11
1274.9661
 21
1252.8018
  0
LINE
  8
0-2
  6
CONTINUOUS
 62
    3
 10
825.00004
 20
1012.244
 11
878.03307
 21
959.21091
  0
LINE
  8
0-2
  6
CONTINUOUS
 62
    3
 10
1275
 20
1012.244
 11
1221.967
 21
959.21091
  0
LINE
  8
0-2
  6
CONTINUOUS
 62
    3
 10
825.00004
 20
562.24405
 11
878.03307
 21
615.27696
  0
LINE
  8
0-2
  6
CONTINUOUS
 62
    3
 10
1275
 20
562.24405
 11
1221.967
 21
615.27696
  0
LINE
  8
0-8
  6
CONTINUOUS
 62
    7
 10
906.07376
 20
736.83085
 11
1193.9265
 21
837.65652
  0
LINE
  8
0-2
  6
CONTINUOUS
 62
    3
 10
897.50003
 20
1667.1742
 11
1202.5
 21
1667.1742
  0
LINE
  8
0-2
  6
CONTINUOUS
 62
    3
 10
897.50003
 20
1722.1743
 11
1202.5
 21
1722.1743
  0
LINE
  8
0-2
  6
CONTINUOUS
 62
    3
 10
897.50003
 20
1667.1742
 11
825.00041
 21
1482.1743
  0
LINE
  8
0-2
  6
CONTINUOUS
 62
    3
 10
1202.5
 20
1667.1742
 11
1274.9661
 21
1481.9379
  0
LINE
  8
0-8
  6
CONTINUOUS
 62
    7
 10
897.50003
 20
1843.0554
 11
1202.5
 21
1843.0554
  0
LINE
  8
0-8
  6
CONTINUOUS
 62
    7
 10
825.00041
 20
1442.3615
 11
825.00041
 21
1252.8018
  0
LINE
  8
0-8
  6
CONTINUOUS
 62
    7
 10
1274.9661
 20
1442.3615
 11
1274.9661
 21
1252.8018
  0
LINE
  8
0-2
  6
CONTINUOUS
 62
    3
 10
897.50003
 20
1712.1742
 11
1202.5
 21
1712.1742
  0
LINE
  8
0-8
  6
CONTINUOUS
 62
    7
 10
897.50003
 20
1748.6766
 11
897.50003
 21
1843.0554
  0
LINE
  8
0-8
  6
CONTINUOUS
 62
    7
 10
1202.5
 20
1748.6766
 11
1202.5
 21
1843.0554
  0
LINE
  8
0-2
  6
CONTINUOUS
 62
    3
 10
897.50003
 20
1722.1743
 11
897.50003
 21
1712.1742
  0
LINE
  8
0-2
  6
CONTINUOUS
 62
    3
 10
897.50003
 20
1702.1741
 11
897.50003
 21
1667.1742
  0
LINE
  8
0-2
  6
CONTINUOUS
 62
    3
 10
897.50003
 20
1702.1742
 11
1202.5
 21
1702.1742
  0
LINE
  8
0-2
  6
CONTINUOUS
 62
    3
 10
1202.5
 20
1702.1742
 11
1202.5
 21
1667.1742
  0
LINE
  8
0-2
  6
CONTINUOUS
 62
    3
 10
1202.5001
 20
1722.1743
 11
1202.5001
 21
1712.1742
  0
LINE
  8
0-d
  6
CONTINUOUS
 62
    7
 10
552.66281
 20
1372.2564
 11
622.46311
 21
1372.2564
  0
LINE
  8
0-d
  6
CONTINUOUS
 62
    7
 10
552.66281
 20
1372.2564
 11
622.46311
 21
1393.1956
  0
LINE
  8
0-d
  6
CONTINUOUS
 62
    7
 10
622.46311
 20
1372.2564
 11
622.46311
 21
1393.1956
  0
LINE
  8
0-2
  6
CONTINUOUS
 62
    3
 10
892.50002
 20
1987.7011
 11
1207.5
 21
1987.701
  0
LINE
  8
0-2
  6
CONTINUOUS
 62
    3
 10
1050
 20
2557.7011
 11
917.74884
 21
2481.3459
  0
LINE
  8
0-2
  6
CONTINUOUS
 62
    3
 10
1050
 20
2557.7011
 11
1182.274
 21
2481.3326
  0
LINE
  8
0-2
  6
CONTINUOUS
 62
    3
 10
640.00004
 20
1197.2438
 11
640.00004
 21
377.24383
  0
LINE
  8
0-2
  6
CONTINUOUS
 62
    3
 10
640.00004
 20
377.24383
 11
1460
 21
377.24383
  0
LINE
  8
0-2
  6
CONTINUOUS
 62
    3
 10
1460
 20
1197.2438
 11
1460
 21
377.24383
  0
LINE
  8
0-2
  6
CONTINUOUS
 62
    3
 10
640.00004
 20
1197.2438
 11
1460
 21
1197.2438
  0
LINE
  8
0-1
  6
CENTER2
 62
    7
 10
1050
 20
2557.7011
 11
1050
 21
309.99995
  0
LINE
  8
0-1
  6
CENTER2
 62
    7
 10
640.00004
 20
787.24387
 11
1460
 21
787.24387
  0
LINE
  8
0-2
  6
CONTINUOUS
 62
    3
 10
1050
 20
1549.6799
 11
640.00004
 21
1426.685
  0
LINE
  8
0-2
  6
CONTINUOUS
 62
    3
 10
1460
 20
1426.4292
 11
1050
 21
1549.6799
  0
LINE
  8
0-d
  6
CONTINUOUS
 62
    7
 10
249.99984
 20
229.99993
 11
1850.0005
 21
229.99993
  0
LINE
  8
0-d
  6
CONTINUOUS
 62
    7
 10
249.99984
 20
129.99994
 11
249.99984
 21
309.99992
  0
LINE
  8
0-d
  6
CONTINUOUS
 62
    7
 10
249.99984
 20
129.99994
 11
1850.0005
 21
129.99994
  0
LINE
  8
0-d
  6
CONTINUOUS
 62
    7
 10
1850.0005
 20
309.99992
 11
1850.0005
 21
129.99994
  0
LINE
  8
0-d
  6
CONTINUOUS
 62
    7
 10
249.99984
 20
309.99992
 11
1850.0005
 21
309.99992
  0
LINE
  8
0-d
  6
CONTINUOUS
 62
    7
 10
1050
 20
309.99992
 11
1050
 21
129.99994
  0
LINE
  8
0-d
  6
CONTINUOUS
 62
    7
 10
650.00019
 20
129.99994
 11
650.00019
 21
229.99993
  0
LINE
  8
0-d
  6
CONTINUOUS
 62
    7
 10
1050
 20
229.99993
 11
1050
 21
309.99995
  0
LINE
  8
0-d
  6
CONTINUOUS
 62
    7
 10
849.99987
 20
129.99994
 11
849.99987
 21
229.99993
  0
LINE
  8
0-d
  6
CONTINUOUS
 62
    7
 10
285.00021
 20
129.99994
 11
285.00021
 21
229.99993
  0
LINE
  8
0-d
  6
CONTINUOUS
 62
    7
 10
685.00006
 20
129.99994
 11
685.00006
 21
229.99993
  0
LINE
  8
0-d
  6
CONTINUOUS
 62
    7
 10
884.99999
 20
129.99994
 11
884.99999
 21
229.99993
  0
LINE
  8
0-d
  6
CONTINUOUS
 62
    7
 10
1015.0001
 20
229.99993
 11
1015.0001
 21
309.99995
  0
LINE
  8
0-d
  6
CONTINUOUS
 62
    7
 10
1550.0004
 20
229.99993
 11
1550.0004
 21
309.99995
  0
LINE
  8
0-d
  6
CONTINUOUS
 62
    7
 10
1585.0003
 20
229.99993
 11
1585.0003
 21
309.99995
  0
LINE
  8
0-2
  6
CONTINUOUS
 62
    3
 10
795.00068
 20
2222.7008
 11
1305.0015
 21
2222.7008
  0
LINE
  8
0-2
  6
CONTINUOUS
 62
    3
 10
1233.8478
 20
2234.8216
 11
1266.1821
 21
2222.701
  0
LINE
  8
0-2
  6
CONTINUOUS
 62
    3
 10
1196.3874
 20
2228.0076
 11
1172.5631
 21
2234.8216
  0
LINE
  8
0-2
  6
CONTINUOUS
 62
    3
 10
1214.9422
 20
2222.701
 11
1206.3874
 21
2225.1477
  0
LINE
  8
0-8
  6
CONTINUOUS
 62
    7
 10
1490.0411
 20
1012.244
 11
1650.0002
 21
1012.244
  0
LINE
  8
0-8
  6
CONTINUOUS
 62
    7
 10
1490.0411
 20
562.24405
 11
1650.0002
 21
562.24405
  0
LINE
  8
0-8
  6
CONTINUOUS
 62
    7
 10
597.6204
 20
377.24383
 11
450.0002
 21
377.24383
  0
LINE
  8
0-8
  6
CONTINUOUS
 62
    7
 10
597.6204
 20
1197.2438
 11
450.0002
 21
1197.2438
  0
ARC
  8
0-2
  6
CONTINUOUS
 62
    3
 10
892.50002
 20
1992.7007
 40
4.9997693
 50
90
 51
270
  0
ARC
  8
0-2
  6
CONTINUOUS
 62
    3
 10
892.49927
 20
2022.7011
 40
4.9997693
 50
90
 51
270
  0
ARC
  8
0-2
  6
CONTINUOUS
 62
    3
 10
1207.5
 20
1992.7007
 40
4.9997693
 50
270
 51
90
  0
ARC
  8
0-2
  6
CONTINUOUS
 62
    3
 10
1207.4993
 20
2022.7011
 40
4.9997693
 50
270
 51
90
  0
ARC
  8
0-2
  6
CONTINUOUS
 62
    3
 10
795.00068
 20
2217.7012
 40
4.9997693
 50
90
 51
270
  0
ARC
  8
0-2
  6
CONTINUOUS
 62
    3
 10
795
 20
2157.7006
 40
4.9997693
 50
90
 51
270
  0
ARC
  8
0-2
  6
CONTINUOUS
 62
    3
 10
1305.0007
 20
2217.7012
 40
4.9997693
 50
270
 51
90
  0
ARC
  8
0-2
  6
CONTINUOUS
 62
    3
 10
1305.0001
 20
2157.7006
 40
4.9997693
 50
270
 51
90
  0
ARC
  8
0-2
  6
CONTINUOUS
 62
    3
 10
794.99994
 20
2427.7012
 40
4.9997693
 50
90
 51
270
  0
ARC
  8
0-2
  6
CONTINUOUS
 62
    3
 10
794.99994
 20
2367.7008
 40
4.9997693
 50
90
 51
270
  0
ARC
  8
0-2
  6
CONTINUOUS
 62
    3
 10
1305
 20
2427.7012
 40
4.9997693
 50
270
 51
90
  0
ARC
  8
0-2
  6
CONTINUOUS
 62
    3
 10
1305
 20
2367.7008
 40
4.9997693
 50
270
 51
90
  0
ARC
  8
0-2
  6
CONTINUOUS
 62
    3
 10
1034.6282
 20
2483.7619
 40
5.2245432
 50
191.71624
 51
348.28375
  0
ARC
  8
0-2
  6
CONTINUOUS
 62
    3
 10
1065.3717
 20
2483.7619
 40
5.2245432
 50
191.71624
 51
348.28375
  0
CIRCLE
  8
0-2
  6
CONTINUOUS
 62
    3
 10
898.61265
 20
2377.3012
 40
3.0000001
  0
CIRCLE
  8
0-2
  6
CONTINUOUS
 62
    3
 10
898.61265
 20
2413.1394
 40
3.0000001
  0
CIRCLE
  8
0-2
  6
CONTINUOUS
 62
    3
 10
898.61265
 20
2208.1008
 40
3.0000001
  0
CIRCLE
  8
0-2
  6
CONTINUOUS
 62
    3
 10
898.61265
 20
2172.2624
 40
3.0000001
  0
CIRCLE
  8
0-2
  6
CONTINUOUS
 62
    3
 10
1201.3873
 20
2377.3012
 40
3.0000001
  0
CIRCLE
  8
0-2
  6
CONTINUOUS
 62
    3
 10
1201.3873
 20
2413.1394
 40
3.0000001
  0
CIRCLE
  8
0-2
  6
CONTINUOUS
 62
    3
 10
1201.3873
 20
2208.1008
 40
3.0000001
  0
CIRCLE
  8
0-2
  6
CONTINUOUS
 62
    3
 10
1201.3873
 20
2172.2624
 40
3.0000001
  0
ARC
  8
0-2
  6
CONTINUOUS
 62
    3
 10
1034.6282
 20
2101.6401
 40
5.2245432
 50
11.716247
 51
168.28375
  0
ARC
  8
0-2
  6
CONTINUOUS
 62
    3
 10
1065.3717
 20
2101.6401
 40
5.2245432
 50
11.716247
 51
168.28375
  0
CIRCLE
  8
0-2
  6
CONTINUOUS
 62
    3
 10
936.96749
 20
2093.8962
 40
3.0000001
  0
CIRCLE
  8
0-2
  6
CONTINUOUS
 62
    3
 10
936.96749
 20
2036.1534
 40
3.0000001
  0
CIRCLE
  8
0-2
  6
CONTINUOUS
 62
    3
 10
1163.0325
 20
2093.8962
 40
3.0000001
  0
CIRCLE
  8
0-2
  6
CONTINUOUS
 62
    3
 10
1163.0325
 20
2036.1534
 40
3.0000001
  0
ARC
  8
0-2
  6
CONTINUOUS
 62
    3
 10
1202.5001
 20
1707.1742
 40
4.9997693
 50
90
 51
270
  0
ARC
  8
0-2
  6
CONTINUOUS
 62
    3
 10
897.49997
 20
1707.1742
 40
4.9997693
 50
270
 51
90
  0
CIRCLE
  8
0-2
  6
CONTINUOUS
 62
    3
 10
1050
 20
787.24387
 40
152.5
  0
TEXT
  8
0-8
 10
1007.3758
 20
2652.9081
 40
30
 41
1
 50
0
  1
510φ
  0
TEXT
  8
0-8
 10
574.00022
 20
2249.9508
 40
30
 41
1
 50
90
  1
570
  0
TEXT
  8
0-8
 10
1010.1089
 20
1955.3375
 40
30
 41
1
 50
0
  1
315φ
  0
TEXT
  8
0-8
 10
1015
 20
1853.0555
 40
30
 41
1
 50
0
  1
305φ
  0
TEXT
  8
0-8
 10
435.00022
 20
1678.4241
 40
30
 41
1
 50
90
  1
55
  0
TEXT
  8
0-8
 10
435.00022
 20
1553.4243
 40
30
 41
1
 50
90
  1
180
  0
TEXT
  8
0-8
 10
1028.7332
 20
1262.8018
 40
30
 41
1
 50
0
  1
450
  0
TEXT
  8
0-8
 10
1640.0001
 20
765.99399
 40
30
 41
1
 50
90
  1
450
  0
TEXT
  8
0-8
 10
1013.6621
 20
785.11131
 40
30
 41
1
 50
19.303787
  1
305φ
  0
TEXT
  8
0-d
 10
635.24956
 20
1372.4473
 40
30
 41
1
 50
0
  1
3
  0
TEXT
  8
0-d
 10
579.10089
 20
1344.9503
 40
30
 41
1
 50
0
  1
10
  0
TEXT
  8
0-d
 10
254.99986
 20
137.49993
 40
25
 41
1
 50
0
  1
番
  0
TEXT
  8
0-d
 10
655.00021
 20
197.49991
 40
25
 41
1
 50
0
  1
承
  0
TEXT
  8
0-d
 10
655.00021
 20
137.49993
 40
25
 41
1
 50
0
  1
認
  0
TEXT
  8
0-d
 10
1020.0002
 20
277.49997
 40
25
 41
1
 50
0
  1
尺
  0
TEXT
  8
0-d
 10
1020.0002
 20
237.49996
 40
25
 41
1
 50
0
  1
度
  0
TEXT
  8
0-d
 10
855.00014
 20
197.49991
 40
25
 41
1
 50
0
  1
製
  0
TEXT
  8
0-d
 10
855.00014
 20
137.49993
 40
25
 41
1
 50
0
  1
図
  0
TEXT
  8
0-d
 10
1555.0002
 20
277.49997
 40
25
 41
1
 50
0
  1
日
  0
TEXT
  8
0-d
 10
1555.0002
 20
237.49996
 40
25
 41
1
 50
0
  1
付
  0
TEXT
  8
0-d
 10
1111.4262
 20
203.48221
 40
20
 41
1
 50
0
  1
株式
  0
TEXT
  8
0-d
 10
1111.4262
 20
181.85179
 40
20
 41
1
 50
0
  1
会社
  0
TEXT
  8
0-d
 10
1174.2245
 20
183.24729
 40
40
 41
1
 50
0
  1
スズキベンチレーター
  0
TEXT
  8
0-d
 10
1237.9179
 20
134.02427
 40
20
 41
1
 50
0
  1
TEL(054)296-7000  FAX(054)296-7001
  0
TEXT
  8
0-d
 10
1084.3491
 20
250.10071
 40
40
 41
1
 50
0
  1
１／１０
  0
TEXT
  8
0-d
 10
254.99986
 20
197.49991
 40
25
 41
1
 50
0
  1
図
  0
TEXT
  8
0-8
 10
308.12866
 20
186.99175
 40
30
 41
1
 50
0
  1
30-A08
  0
TEXT
  8
0-8
 10
440.00023
 20
765.99399
 40
30
 41
1
 50
90
  1
≒ 820
  0
TEXT
  8
0-d
 10
264.45945
 20
2794.1893
 40
50
 41
1
 50
0
  1
ＡＳ－３００　自然回転  直付型立面、直付袴立面・平面
  0
TEXT
  8
0-2
 10
255.88178
 20
276.51203
 40
30
 41
1
 50
0
  1
ＡＳ－３００　自然回転  直付型立面、
  0
TEXT
  8
0-d
 10
673.24593
 20
237.25504
 40
30
 41
1
 50
0
  1
直付袴立面・平面
  0
TEXT
  8
0-d
 10
1235.6794
 20
158.64601
 40
20
 41
1
 50
0
  1
〒421-2114　静岡市葵区安倍口新田１５２番地
  0
POINT
  8
0-8
 62
    2
 10
795
 20
2644.9653
  0
POINT
  8
0-8
 62
    2
 10
1305.0009
 20
2644.9653
  0
POINT
  8
0-8
 62
    2
 10
580.00021
 20
1987.7007
  0
POINT
  8
0-8
 62
    2
 10
580.00021
 20
2557.7011
  0
POINT
  8
0-8
 62
    2
 10
580.00021
 20
1987.7011
  0
POINT
  8
0-8
 62
    2
 10
892.50002
 20
1953.8245
  0
POINT
  8
0-8
 62
    2
 10
1207.5
 20
1953.8244
  0
POINT
  8
0-8
 62
    2
 10
450.00027
 20
1482.1743
  0
POINT
  8
0-8
 62
    2
 10
450.00027
 20
1667.1742
  0
POINT
  8
0-8
 62
    2
 10
450.00027
 20
1722.1743
  0
POINT
  8
0-8
 62
    2
 10
450.0002
 20
377.24383
  0
POINT
  8
0-8
 62
    2
 10
450.0002
 20
1197.2438
  0
POINT
  8
0-8
 62
    2
 10
1650.0002
 20
562.24405
  0
POINT
  8
0-8
 62
    2
 10
1650.0002
 20
1012.244
  0
POINT
  8
0-8
 62
    2
 10
825.00041
 20
1252.8018
  0
POINT
  8
0-8
 62
    2
 10
1274.9661
 20
1252.8018
  0
POINT
  8
0-8
 62
    2
 10
906.07376
 20
736.83085
  0
POINT
  8
0-8
 62
    2
 10
1193.9265
 20
837.65652
  0
POINT
  8
0-8
 62
    2
 10
897.50003
 20
1843.0554
  0
POINT
  8
0-8
 62
    2
 10
1202.5
 20
1843.0554
  0
ENDSEC
  0
EOF
