  0
SECTION
  2
HEADER
  9
$EXTMIN
 10
0
 20
0
  9
$EXTMAX
 10
2520
 20
1782
  0
ENDSEC
  0
SECTION
  2
TABLES
  0
TABLE
  2
LTYPE
 70
     9
  0
LTYPE
  2
CONTINUOUS
 70
    64
  3
実線
 72
    65
 73
     0
 40
0.0
  0
LTYPE
  2
DASHED1
 70
    64
  3
--  --  --  --  --  --  --  --  
 72
    65
 73
     2
 40
2.5
 49
1.25
 49
-1.25
  0
LTYPE
  2
DASHED2
 70
    64
  3
----    ----    ----    ----    
 72
    65
 73
     2
 40
5.0
 49
2.5
 49
-2.5
  0
LTYPE
  2
DASHED3
 70
    64
  3
------  ------  ------  ------  
 72
    65
 73
     2
 40
5.0
 49
3.75
 49
-1.25
  0
LTYPE
  2
CENTER1
 70
    64
  3
----- - ----- - ----- - ----- - 
 72
    65
 73
     4
 40
10.0
 49
6.25
 49
-1.25
 49
1.25
 49
-1.25
  0
LTYPE
  2
CENTER2
 70
    64
  3
----------  --  ----------  --  
 72
    65
 73
     4
 40
20.0
 49
12.5
 49
-2.5
 49
2.5
 49
-2.5
  0
LTYPE
  2
PHANTOM1
 70
    64
  3
--- - - --- - - --- - - --- - - 
 72
    65
 73
     6
 40
10.0
 49
3.25
 49
-1.25
 49
1.25
 49
-1.25
 49
1.25
 49
-1.25
  0
LTYPE
  2
PHANTOM2
 70
    64
  3
--------  -  -  --------  -  -  
 72
    65
 73
     6
 40
20.0
 49
10.0
 49
-2.5
 49
1.25
 49
-2.5
 49
1.25
 49
-2.5
  0
LTYPE
  2
DOT
 70
    64
  3
-   -   -   -   -   -   -   -   
 72
    65
 73
     2
 40
2.5
 49
0.625
 49
-1.875
  0
ENDTAB
  0
TABLE
  2
STYLE
 70
    1
  0
STYLE
  2
STANDARD
 70
    64
 40
0.0
 41
1.0
 42
0.0
 50
0.0
 71
     0
  3
TXT
  4
BIGFONT
  0
ENDTAB
  0
TABLE
  2
LAYER
 70
    6
  0
LAYER
  2
0-1
 70
   64
 62
    7
  6
CONTINUOUS
  0
LAYER
  2
0-2
 70
   64
 62
    7
  6
CONTINUOUS
  0
LAYER
  2
0-5
 70
   64
 62
    7
  6
CONTINUOUS
  0
LAYER
  2
0-8
 70
   64
 62
    7
  6
CONTINUOUS
  0
LAYER
  2
0-d
 70
   64
 62
    7
  6
CONTINUOUS
  0
LAYER
  2
ADD_LINE
 70
   64
 62
    7
  6
CONTINUOUS
  0
ENDTAB
  0
ENDSEC
  0
SECTION
  2
ENTITIES
  0
LINE
  8
0-d
  6
CONTINUOUS
 62
    7
 10
150.00001
 20
1654.6207
 11
1110
 21
1654.6207
  0
LINE
  8
0-d
  6
CONTINUOUS
 62
    7
 10
150.00001
 20
1660.6207
 11
1110
 21
1660.6207
  0
LINE
  8
0-8
  6
CONTINUOUS
 62
    7
 10
210.0002
 20
900.09241
 11
210.0002
 21
1380.0916
  0
LINE
  8
0-8
  6
CONTINUOUS
 62
    7
 10
390.00002
 20
1437.3567
 11
870.00078
 21
1437.3567
  0
LINE
  8
0-2
  6
CONTINUOUS
 62
    3
 10
390.00002
 20
1085.0925
 11
390.00002
 21
1050.0922
  0
LINE
  8
0-2
  6
CONTINUOUS
 62
    3
 10
870.00004
 20
1085.0925
 11
870.00004
 21
1050.0922
  0
LINE
  8
0-2
  6
CONTINUOUS
 62
    3
 10
390.00002
 20
1310.0928
 11
390.00002
 21
1275.0925
  0
LINE
  8
0-2
  6
CONTINUOUS
 62
    3
 10
870.00004
 20
1310.0928
 11
870.00004
 21
1275.0925
  0
LINE
  8
0-2
  6
CONTINUOUS
 62
    3
 10
629.99999
 20
1380.0925
 11
526.07697
 21
1320.0926
  0
LINE
  8
0-8
  6
CONTINUOUS
 62
    7
 10
341.13105
 20
1380.0916
 11
210.0002
 21
1380.0916
  0
LINE
  8
0-8
  6
CONTINUOUS
 62
    7
 10
390.00002
 20
1354.6912
 11
390.00002
 21
1437.3567
  0
LINE
  8
0-8
  6
CONTINUOUS
 62
    7
 10
870.00078
 20
1354.6912
 11
870.00078
 21
1437.3567
  0
LINE
  8
0-2
  6
CONTINUOUS
 62
    3
 10
390.00002
 20
1265.093
 11
390.00002
 21
1095.0922
  0
LINE
  8
0-2
  6
CONTINUOUS
 62
    3
 10
870.00078
 20
1265.093
 11
870.00078
 21
1095.0922
  0
LINE
  8
0-2
  6
CONTINUOUS
 62
    3
 10
390.00002
 20
1320.0926
 11
629.99999
 21
1320.0926
  0
LINE
  8
0-2
  6
CONTINUOUS
 62
    3
 10
390.00002
 20
1310.0928
 11
629.99999
 21
1310.0928
  0
LINE
  8
0-2
  6
CONTINUOUS
 62
    3
 10
390.00002
 20
1275.0928
 11
629.99999
 21
1275.0928
  0
LINE
  8
0-2
  6
CONTINUOUS
 62
    3
 10
390.00002
 20
1265.093
 11
629.99999
 21
1265.093
  0
LINE
  8
0-2
  6
CONTINUOUS
 62
    3
 10
733.92301
 20
1320.0926
 11
870.00078
 21
1320.0926
  0
LINE
  8
0-2
  6
CONTINUOUS
 62
    3
 10
751.24318
 20
1310.0928
 11
870.00078
 21
1310.0928
  0
LINE
  8
0-2
  6
CONTINUOUS
 62
    3
 10
811.86514
 20
1275.0928
 11
870.00078
 21
1275.0928
  0
LINE
  8
0-2
  6
CONTINUOUS
 62
    3
 10
829.18531
 20
1265.093
 11
870.00078
 21
1265.093
  0
LINE
  8
0-2
  6
CONTINUOUS
 62
    3
 10
390.00002
 20
1040.0926
 11
629.99999
 21
1040.0926
  0
LINE
  8
0-2
  6
CONTINUOUS
 62
    3
 10
390.00002
 20
1050.0923
 11
629.99999
 21
1050.0923
  0
LINE
  8
0-2
  6
CONTINUOUS
 62
    3
 10
390.00002
 20
1085.0925
 11
629.99999
 21
1085.0925
  0
LINE
  8
0-2
  6
CONTINUOUS
 62
    3
 10
390.00002
 20
1095.0922
 11
629.99999
 21
1095.0922
  0
LINE
  8
0-2
  6
CONTINUOUS
 62
    3
 10
787.50006
 20
1040.0926
 11
870.00078
 21
1040.0926
  0
LINE
  8
0-2
  6
CONTINUOUS
 62
    3
 10
787.50006
 20
1050.0923
 11
870.00078
 21
1050.0923
  0
LINE
  8
0-2
  6
CONTINUOUS
 62
    3
 10
787.50006
 20
1085.0925
 11
870.00078
 21
1085.0925
  0
LINE
  8
0-2
  6
CONTINUOUS
 62
    3
 10
787.50006
 20
1095.0922
 11
870.00078
 21
1095.0922
  0
LINE
  8
0-2
  6
CONTINUOUS
 62
    3
 10
629.99999
 20
1225.0927
 11
787.50155
 21
1225.0927
  0
LINE
  8
0-2
  6
CONTINUOUS
 62
    3
 10
629.99999
 20
1235.0924
 11
787.50081
 21
1235.0924
  0
LINE
  8
0-2
  6
CONTINUOUS
 62
    3
 10
787.50006
 20
1225.0927
 11
787.50006
 21
1005.0922
  0
LINE
  8
0-5
  6
CONTINUOUS
 62
    7
 10
787.50081
 20
1289.1596
 11
629.99999
 21
1289.1596
  0
LINE
  8
0-5
  6
CONTINUOUS
 62
    7
 10
787.50081
 20
1235.0924
 11
787.50081
 21
1289.1596
  0
LINE
  8
0-5
  6
CONTINUOUS
 62
    4
 10
787.50081
 20
1286.1596
 11
629.99999
 21
1286.1596
  0
LINE
  8
0-5
  6
CONTINUOUS
 62
    4
 10
787.50081
 20
1283.1596
 11
629.99999
 21
1283.1596
  0
LINE
  8
0-5
  6
CONTINUOUS
 62
    4
 10
787.50081
 20
1280.1596
 11
629.99999
 21
1280.1596
  0
LINE
  8
0-5
  6
CONTINUOUS
 62
    4
 10
787.50081
 20
1277.1595
 11
629.99999
 21
1277.1595
  0
LINE
  8
0-5
  6
CONTINUOUS
 62
    4
 10
787.50081
 20
1274.1595
 11
629.99999
 21
1274.1595
  0
LINE
  8
0-5
  6
CONTINUOUS
 62
    4
 10
787.50081
 20
1271.1595
 11
629.99999
 21
1271.1595
  0
LINE
  8
0-5
  6
CONTINUOUS
 62
    4
 10
787.50081
 20
1268.1595
 11
629.99999
 21
1268.1595
  0
LINE
  8
0-5
  6
CONTINUOUS
 62
    4
 10
787.50081
 20
1265.1595
 11
629.99999
 21
1265.1595
  0
LINE
  8
0-5
  6
CONTINUOUS
 62
    4
 10
787.50081
 20
1262.1595
 11
629.99999
 21
1262.1595
  0
LINE
  8
0-5
  6
CONTINUOUS
 62
    4
 10
787.50081
 20
1259.1595
 11
629.99999
 21
1259.1595
  0
LINE
  8
0-5
  6
CONTINUOUS
 62
    4
 10
787.50081
 20
1256.1595
 11
629.99999
 21
1256.1595
  0
LINE
  8
0-5
  6
CONTINUOUS
 62
    4
 10
787.50081
 20
1253.1596
 11
629.99999
 21
1253.1596
  0
LINE
  8
0-5
  6
CONTINUOUS
 62
    4
 10
787.50081
 20
1250.1596
 11
629.99999
 21
1250.1596
  0
LINE
  8
0-5
  6
CONTINUOUS
 62
    4
 10
787.50081
 20
1247.1596
 11
629.99999
 21
1247.1596
  0
LINE
  8
0-5
  6
CONTINUOUS
 62
    4
 10
787.50081
 20
1244.1594
 11
629.99999
 21
1244.1594
  0
LINE
  8
0-5
  6
CONTINUOUS
 62
    4
 10
787.50081
 20
1241.1594
 11
629.99999
 21
1241.1594
  0
LINE
  8
0-5
  6
CONTINUOUS
 62
    4
 10
787.50081
 20
1238.1594
 11
629.99999
 21
1238.1594
  0
LINE
  8
0-5
  6
CONTINUOUS
 62
    4
 10
784.5008
 20
1235.0924
 11
784.5008
 21
1289.1596
  0
LINE
  8
0-5
  6
CONTINUOUS
 62
    4
 10
781.50079
 20
1235.0924
 11
781.50079
 21
1289.1596
  0
LINE
  8
0-5
  6
CONTINUOUS
 62
    4
 10
778.50078
 20
1235.0924
 11
778.50078
 21
1289.1596
  0
LINE
  8
0-5
  6
CONTINUOUS
 62
    4
 10
775.50084
 20
1235.0924
 11
775.50084
 21
1289.1596
  0
LINE
  8
0-5
  6
CONTINUOUS
 62
    4
 10
772.50083
 20
1235.0924
 11
772.50083
 21
1289.1596
  0
LINE
  8
0-5
  6
CONTINUOUS
 62
    4
 10
769.50082
 20
1235.0924
 11
769.50082
 21
1289.1596
  0
LINE
  8
0-5
  6
CONTINUOUS
 62
    4
 10
766.50081
 20
1235.0924
 11
766.50081
 21
1289.1596
  0
LINE
  8
0-5
  6
CONTINUOUS
 62
    4
 10
763.5008
 20
1235.0924
 11
763.5008
 21
1289.1596
  0
LINE
  8
0-5
  6
CONTINUOUS
 62
    4
 10
760.50079
 20
1235.0924
 11
760.50079
 21
1289.1596
  0
LINE
  8
0-5
  6
CONTINUOUS
 62
    4
 10
757.50078
 20
1235.0924
 11
757.50078
 21
1289.1596
  0
LINE
  8
0-5
  6
CONTINUOUS
 62
    4
 10
754.50077
 20
1235.0924
 11
754.50077
 21
1289.1596
  0
LINE
  8
0-5
  6
CONTINUOUS
 62
    4
 10
751.50084
 20
1235.0924
 11
751.50084
 21
1289.1596
  0
LINE
  8
0-5
  6
CONTINUOUS
 62
    4
 10
748.50083
 20
1235.0924
 11
748.50083
 21
1289.1596
  0
LINE
  8
0-5
  6
CONTINUOUS
 62
    4
 10
745.50082
 20
1235.0924
 11
745.50082
 21
1289.1596
  0
LINE
  8
0-5
  6
CONTINUOUS
 62
    4
 10
742.50081
 20
1235.0924
 11
742.50081
 21
1289.1596
  0
LINE
  8
0-5
  6
CONTINUOUS
 62
    4
 10
739.5008
 20
1235.0924
 11
739.5008
 21
1289.1596
  0
LINE
  8
0-5
  6
CONTINUOUS
 62
    4
 10
736.50086
 20
1235.0924
 11
736.50086
 21
1289.1596
  0
LINE
  8
0-5
  6
CONTINUOUS
 62
    4
 10
733.50085
 20
1235.0924
 11
733.50085
 21
1289.1596
  0
LINE
  8
0-5
  6
CONTINUOUS
 62
    4
 10
730.50084
 20
1235.0924
 11
730.50084
 21
1289.1596
  0
LINE
  8
0-5
  6
CONTINUOUS
 62
    4
 10
727.50083
 20
1235.0924
 11
727.50083
 21
1289.1596
  0
LINE
  8
0-5
  6
CONTINUOUS
 62
    4
 10
724.50082
 20
1235.0924
 11
724.50082
 21
1289.1596
  0
LINE
  8
0-5
  6
CONTINUOUS
 62
    4
 10
721.50081
 20
1235.0924
 11
721.50081
 21
1289.1596
  0
LINE
  8
0-5
  6
CONTINUOUS
 62
    4
 10
718.5008
 20
1235.0924
 11
718.5008
 21
1289.1596
  0
LINE
  8
0-5
  6
CONTINUOUS
 62
    4
 10
715.50079
 20
1235.0924
 11
715.50079
 21
1289.1596
  0
LINE
  8
0-5
  6
CONTINUOUS
 62
    4
 10
712.50086
 20
1235.0924
 11
712.50086
 21
1289.1596
  0
LINE
  8
0-5
  6
CONTINUOUS
 62
    4
 10
709.50085
 20
1235.0924
 11
709.50085
 21
1289.1596
  0
LINE
  8
0-5
  6
CONTINUOUS
 62
    4
 10
706.50084
 20
1235.0924
 11
706.50084
 21
1289.1596
  0
LINE
  8
0-5
  6
CONTINUOUS
 62
    4
 10
703.50083
 20
1235.0924
 11
703.50083
 21
1289.1596
  0
LINE
  8
0-5
  6
CONTINUOUS
 62
    4
 10
700.50082
 20
1235.0924
 11
700.50082
 21
1289.1596
  0
LINE
  8
0-5
  6
CONTINUOUS
 62
    4
 10
697.50088
 20
1235.0924
 11
697.50088
 21
1289.1596
  0
LINE
  8
0-5
  6
CONTINUOUS
 62
    4
 10
694.50087
 20
1235.0924
 11
694.50087
 21
1289.1596
  0
LINE
  8
0-5
  6
CONTINUOUS
 62
    4
 10
691.50086
 20
1235.0924
 11
691.50086
 21
1289.1596
  0
LINE
  8
0-5
  6
CONTINUOUS
 62
    4
 10
688.50085
 20
1235.0924
 11
688.50085
 21
1289.1596
  0
LINE
  8
0-5
  6
CONTINUOUS
 62
    4
 10
685.50084
 20
1235.0924
 11
685.50084
 21
1289.1596
  0
LINE
  8
0-5
  6
CONTINUOUS
 62
    4
 10
682.50083
 20
1235.0924
 11
682.50083
 21
1289.1596
  0
LINE
  8
0-5
  6
CONTINUOUS
 62
    4
 10
679.50082
 20
1235.0924
 11
679.50082
 21
1289.1596
  0
LINE
  8
0-5
  6
CONTINUOUS
 62
    4
 10
676.50081
 20
1235.0924
 11
676.50081
 21
1289.1596
  0
LINE
  8
0-5
  6
CONTINUOUS
 62
    4
 10
673.50088
 20
1235.0924
 11
673.50088
 21
1289.1596
  0
LINE
  8
0-5
  6
CONTINUOUS
 62
    4
 10
670.50087
 20
1235.0924
 11
670.50087
 21
1289.1596
  0
LINE
  8
0-5
  6
CONTINUOUS
 62
    4
 10
667.50086
 20
1235.0924
 11
667.50086
 21
1289.1596
  0
LINE
  8
0-5
  6
CONTINUOUS
 62
    4
 10
664.50085
 20
1235.0924
 11
664.50085
 21
1289.1596
  0
LINE
  8
0-5
  6
CONTINUOUS
 62
    4
 10
661.50084
 20
1235.0924
 11
661.50084
 21
1289.1596
  0
LINE
  8
0-5
  6
CONTINUOUS
 62
    4
 10
658.5009
 20
1235.0924
 11
658.5009
 21
1289.1596
  0
LINE
  8
0-5
  6
CONTINUOUS
 62
    4
 10
655.50089
 20
1235.0924
 11
655.50089
 21
1289.1596
  0
LINE
  8
0-5
  6
CONTINUOUS
 62
    4
 10
652.50088
 20
1235.0924
 11
652.50088
 21
1289.1596
  0
LINE
  8
0-5
  6
CONTINUOUS
 62
    4
 10
649.50087
 20
1235.0924
 11
649.50087
 21
1289.1596
  0
LINE
  8
0-5
  6
CONTINUOUS
 62
    4
 10
646.50086
 20
1235.0924
 11
646.50086
 21
1289.1596
  0
LINE
  8
0-5
  6
CONTINUOUS
 62
    4
 10
643.50085
 20
1235.0924
 11
643.50085
 21
1289.1596
  0
LINE
  8
0-5
  6
CONTINUOUS
 62
    4
 10
640.50084
 20
1235.0924
 11
640.50084
 21
1289.1596
  0
LINE
  8
0-5
  6
CONTINUOUS
 62
    4
 10
637.50083
 20
1235.0924
 11
637.50083
 21
1289.1596
  0
LINE
  8
0-5
  6
CONTINUOUS
 62
    4
 10
634.5009
 20
1235.0924
 11
634.5009
 21
1289.1596
  0
LINE
  8
0-5
  6
CONTINUOUS
 62
    4
 10
631.50089
 20
1235.0924
 11
631.50089
 21
1289.1596
  0
LINE
  8
0-2
  6
CONTINUOUS
 62
    3
 10
787.49999
 20
995.0923
 11
787.49999
 21
960.09194
  0
LINE
  8
0-2
  6
CONTINUOUS
 62
    3
 10
370
 20
900.09166
 11
370
 21
960.09164
  0
LINE
  8
0-2
  6
CONTINUOUS
 62
    3
 10
889.99998
 20
960.09164
 11
370
 21
960.09164
  0
LINE
  8
0-2
  6
CONTINUOUS
 62
    3
 10
889.99998
 20
900.09166
 11
889.99998
 21
960.09164
  0
LINE
  8
0-2
  6
CONTINUOUS
 62
    3
 10
889.99998
 20
900.09166
 11
370
 21
900.09166
  0
LINE
  8
0-2
  6
CONTINUOUS
 62
    3
 10
787.49999
 20
995.09245
 11
787.49999
 21
960.09208
  0
LINE
  8
0-2
  6
CONTINUOUS
 62
    3
 10
889.99998
 20
960.09164
 11
787.49999
 21
1012.7978
  0
LINE
  8
0-8
  6
CONTINUOUS
 62
    7
 10
370
 20
788.72311
 11
889.99998
 21
788.72311
  0
LINE
  8
0-8
  6
CONTINUOUS
 62
    7
 10
370
 20
878.52632
 11
370
 21
788.72311
  0
LINE
  8
0-8
  6
CONTINUOUS
 62
    7
 10
889.99998
 20
878.52632
 11
889.99998
 21
788.72311
  0
LINE
  8
0-8
  6
CONTINUOUS
 62
    7
 10
257.83783
 20
900.09166
 11
257.83783
 21
960.09164
  0
LINE
  8
0-8
  6
CONTINUOUS
 62
    7
 10
298.63192
 20
900.09166
 11
257.83783
 21
900.09166
  0
LINE
  8
0-8
  6
CONTINUOUS
 62
    7
 10
341.13105
 20
960.09164
 11
257.83783
 21
960.09164
  0
LINE
  8
0-8
  6
CONTINUOUS
 62
    7
 10
341.13105
 20
900.09241
 11
210.0002
 21
900.09241
  0
LINE
  8
0-2
  6
CONTINUOUS
 62
    3
 10
492.50001
 20
1005.0922
 11
787.50073
 21
1005.092
  0
LINE
  8
0-2
  6
CONTINUOUS
 62
    3
 10
492.50001
 20
995.09245
 11
787.50073
 21
995.0923
  0
LINE
  8
0-2
  6
CONTINUOUS
 62
    3
 10
472.49999
 20
1040.0926
 11
472.49999
 21
1012.7978
  0
LINE
  8
0-d
  6
CONTINUOUS
 62
    7
 10
149.99989
 20
77.999959
 11
1110.0002
 21
77.999959
  0
LINE
  8
0-d
  6
CONTINUOUS
 62
    7
 10
149.99989
 20
17.999966
 11
149.99989
 21
125.99995
  0
LINE
  8
0-d
  6
CONTINUOUS
 62
    7
 10
149.99989
 20
17.999966
 11
1110.0002
 21
17.999966
  0
LINE
  8
0-d
  6
CONTINUOUS
 62
    7
 10
1110.0002
 20
125.99995
 11
1110.0002
 21
17.999966
  0
LINE
  8
0-d
  6
CONTINUOUS
 62
    7
 10
149.99989
 20
125.99995
 11
1110.0002
 21
125.99995
  0
LINE
  8
0-d
  6
CONTINUOUS
 62
    7
 10
629.99999
 20
125.99995
 11
629.99999
 21
17.999966
  0
LINE
  8
0-d
  6
CONTINUOUS
 62
    7
 10
390.00009
 20
17.999966
 11
390.00009
 21
77.999959
  0
LINE
  8
0-d
  6
CONTINUOUS
 62
    7
 10
629.99999
 20
77.999959
 11
629.99999
 21
125.99996
  0
LINE
  8
0-d
  6
CONTINUOUS
 62
    7
 10
509.99989
 20
17.999966
 11
509.99989
 21
77.999959
  0
LINE
  8
0-d
  6
CONTINUOUS
 62
    7
 10
171.00011
 20
17.999966
 11
171.00011
 21
77.999959
  0
LINE
  8
0-d
  6
CONTINUOUS
 62
    7
 10
411.00001
 20
17.999966
 11
411.00001
 21
77.999959
  0
LINE
  8
0-d
  6
CONTINUOUS
 62
    7
 10
530.99996
 20
17.999966
 11
530.99996
 21
77.999959
  0
LINE
  8
0-d
  6
CONTINUOUS
 62
    7
 10
609.00007
 20
77.999959
 11
609.00007
 21
125.99996
  0
LINE
  8
0-d
  6
CONTINUOUS
 62
    7
 10
930.00024
 20
77.999959
 11
930.00024
 21
125.99996
  0
LINE
  8
0-d
  6
CONTINUOUS
 62
    7
 10
951.00016
 20
77.999959
 11
951.00016
 21
125.99996
  0
LINE
  8
0-1
  6
CENTER2
 62
    7
 10
629.99999
 20
1380.0925
 11
629.99999
 21
880.54053
  0
LINE
  8
0-2
  6
CONTINUOUS
 62
    3
 10
629.99999
 20
1380.0925
 11
834.38177
 21
1262.0928
  0
LINE
  8
0-2
  6
CONTINUOUS
 62
    3
 10
787.49999
 20
1262.0928
 11
834.38177
 21
1262.0928
  0
LINE
  8
0-2
  6
CONTINUOUS
 62
    3
 10
370
 20
960.09164
 11
492.50001
 21
1023.082
  0
LINE
  8
0-2
  6
CONTINUOUS
 62
    3
 10
492.50001
 20
1023.082
 11
492.50001
 21
960.09208
  0
ARC
  8
0-2
  6
CONTINUOUS
 62
    3
 10
390.00002
 20
1090.0925
 40
4.9997686
 50
90
 51
270
  0
ARC
  8
0-2
  6
CONTINUOUS
 62
    3
 10
390.00002
 20
1045.0924
 40
4.9997686
 50
90
 51
270
  0
ARC
  8
0-2
  6
CONTINUOUS
 62
    3
 10
870.00004
 20
1090.0925
 40
4.9997686
 50
270
 51
90
  0
ARC
  8
0-2
  6
CONTINUOUS
 62
    3
 10
870.00004
 20
1045.0924
 40
4.9997686
 50
270
 51
90
  0
ARC
  8
0-2
  6
CONTINUOUS
 62
    3
 10
390.00002
 20
1315.093
 40
4.9997686
 50
90
 51
270
  0
ARC
  8
0-2
  6
CONTINUOUS
 62
    3
 10
390.00002
 20
1270.0927
 40
4.9997686
 50
90
 51
270
  0
ARC
  8
0-2
  6
CONTINUOUS
 62
    3
 10
870.00004
 20
1315.093
 40
4.9997686
 50
270
 51
90
  0
ARC
  8
0-2
  6
CONTINUOUS
 62
    3
 10
870.00004
 20
1270.0927
 40
4.9997686
 50
270
 51
90
  0
ARC
  8
0-2
  6
CONTINUOUS
 62
    3
 10
787.50081
 20
1230.0925
 40
4.9997686
 50
270
 51
90
  0
ARC
  8
0-2
  6
CONTINUOUS
 62
    3
 10
787.49999
 20
1000.0921
 40
4.9997686
 50
90
 51
270
  0
TEXT
  8
0-8
 10
584.0715
 20
1442.1812
 40
18
 41
1
 50
0
  1
480φ
  0
TEXT
  8
0-8
 10
197.18517
 20
1169.854
 40
18
 41
1
 50
90
  1
480
  0
TEXT
  8
0-8
 10
251.83783
 20
921.84155
 40
18
 41
1
 50
90
  1
60
  0
TEXT
  8
0-d
 10
152.9999
 20
58.499955
 40
15
 41
1
 50
0
  1
図
  0
TEXT
  8
0-d
 10
152.9999
 20
22.499962
 40
15
 41
1
 50
0
  1
番
  0
TEXT
  8
0-d
 10
393.0001
 20
58.499955
 40
15
 41
1
 50
0
  1
承
  0
TEXT
  8
0-d
 10
393.0001
 20
22.499962
 40
15
 41
1
 50
0
  1
認
  0
TEXT
  8
0-d
 10
612.00008
 20
106.49997
 40
15
 41
1
 50
0
  1
尺
  0
TEXT
  8
0-d
 10
612.00008
 20
82.499974
 40
15
 41
1
 50
0
  1
度
  0
TEXT
  8
0-d
 10
513.00005
 20
58.499955
 40
15
 41
1
 50
0
  1
製
  0
TEXT
  8
0-d
 10
513.00005
 20
22.499962
 40
15
 41
1
 50
0
  1
図
  0
TEXT
  8
0-d
 10
933.0001
 20
106.49997
 40
15
 41
1
 50
0
  1
日
  0
TEXT
  8
0-d
 10
933.0001
 20
82.499974
 40
15
 41
1
 50
0
  1
付
  0
TEXT
  8
0-d
 10
666.85571
 20
62.089325
 40
12
 41
1
 50
0
  1
株式
  0
TEXT
  8
0-d
 10
666.85571
 20
49.111066
 40
12
 41
1
 50
0
  1
会社
  0
TEXT
  8
0-d
 10
704.53465
 20
49.94837
 40
24
 41
1
 50
0
  1
スズキベンチレーター
  0
TEXT
  8
0-d
 10
742.75074
 20
20.414555
 40
12
 41
1
 50
0
  1
TEL(054)296-7000  FAX(054)296-7001
  0
TEXT
  8
0-d
 10
650.60945
 20
90.060424
 40
24
 41
1
 50
0
  1
１／６
  0
TEXT
  8
0-8
 10
596.51351
 20
800.83784
 40
18
 41
1
 50
0
  1
520x520
  0
TEXT
  8
0-d
 10
182.15458
 20
51.341184
 40
18
 41
1
 50
0
  1
30-A07b
  0
TEXT
  8
0-d
 10
153.00001
 20
1663.6207
 40
30
 41
1
 50
0
  1
ＤＳ－３００　　自然換気　架台型（網付）断面
  0
TEXT
  8
0-d
 10
156.47802
 20
90.135537
 40
18
 41
1
 50
0
  1
ＤＳ－３００ 自然換気 架台型（網付）断面
  0
TEXT
  8
0-d
 10
741.40759
 20
35.187612
 40
12
 41
1
 50
0
  1
〒421-2114　静岡市葵区安倍口新田１５２番地
  0
POINT
  8
0-8
 62
    2
 10
210.0002
 20
900.09241
  0
POINT
  8
0-8
 62
    2
 10
210.0002
 20
1380.0916
  0
POINT
  8
0-8
 62
    2
 10
390.00002
 20
1437.3567
  0
POINT
  8
0-8
 62
    2
 10
870.00078
 20
1437.3567
  0
POINT
  8
0-8
 62
    2
 10
370
 20
788.72311
  0
POINT
  8
0-8
 62
    2
 10
889.99998
 20
788.72311
  0
POINT
  8
0-8
 62
    2
 10
257.83783
 20
900.09166
  0
POINT
  8
0-8
 62
    2
 10
257.83783
 20
960.09164
  0
ENDSEC
  0
EOF
