  0
SECTION
  2
HEADER
  9
$EXTMIN
 10
0
 20
0
  9
$EXTMAX
 10
2520
 20
1782
  0
ENDSEC
  0
SECTION
  2
TABLES
  0
TABLE
  2
LTYPE
 70
     9
  0
LTYPE
  2
CONTINUOUS
 70
    64
  3
実線
 72
    65
 73
     0
 40
0.0
  0
LTYPE
  2
DASHED1
 70
    64
  3
--  --  --  --  --  --  --  --  
 72
    65
 73
     2
 40
2.5
 49
1.25
 49
-1.25
  0
LTYPE
  2
DASHED2
 70
    64
  3
----    ----    ----    ----    
 72
    65
 73
     2
 40
5.0
 49
2.5
 49
-2.5
  0
LTYPE
  2
DASHED3
 70
    64
  3
------  ------  ------  ------  
 72
    65
 73
     2
 40
5.0
 49
3.75
 49
-1.25
  0
LTYPE
  2
CENTER1
 70
    64
  3
----- - ----- - ----- - ----- - 
 72
    65
 73
     4
 40
10.0
 49
6.25
 49
-1.25
 49
1.25
 49
-1.25
  0
LTYPE
  2
CENTER2
 70
    64
  3
----------  --  ----------  --  
 72
    65
 73
     4
 40
20.0
 49
12.5
 49
-2.5
 49
2.5
 49
-2.5
  0
LTYPE
  2
PHANTOM1
 70
    64
  3
--- - - --- - - --- - - --- - - 
 72
    65
 73
     6
 40
10.0
 49
3.25
 49
-1.25
 49
1.25
 49
-1.25
 49
1.25
 49
-1.25
  0
LTYPE
  2
PHANTOM2
 70
    64
  3
--------  -  -  --------  -  -  
 72
    65
 73
     6
 40
20.0
 49
10.0
 49
-2.5
 49
1.25
 49
-2.5
 49
1.25
 49
-2.5
  0
LTYPE
  2
DOT
 70
    64
  3
-   -   -   -   -   -   -   -   
 72
    65
 73
     2
 40
2.5
 49
0.625
 49
-1.875
  0
ENDTAB
  0
TABLE
  2
STYLE
 70
    1
  0
STYLE
  2
STANDARD
 70
    64
 40
0.0
 41
1.0
 42
0.0
 50
0.0
 71
     0
  3
TXT
  4
BIGFONT
  0
ENDTAB
  0
TABLE
  2
LAYER
 70
    6
  0
LAYER
  2
0-1
 70
   64
 62
    7
  6
CONTINUOUS
  0
LAYER
  2
0-2
 70
   64
 62
    7
  6
CONTINUOUS
  0
LAYER
  2
0-5
 70
   64
 62
    7
  6
CONTINUOUS
  0
LAYER
  2
0-8
 70
   64
 62
    7
  6
CONTINUOUS
  0
LAYER
  2
0-d
 70
   64
 62
    7
  6
CONTINUOUS
  0
LAYER
  2
ADD_LINE
 70
   64
 62
    7
  6
CONTINUOUS
  0
ENDTAB
  0
ENDSEC
  0
SECTION
  2
ENTITIES
  0
LINE
  8
0-d
  6
CONTINUOUS
 62
    7
 10
150.00001
 20
1654.6207
 11
1110
 21
1654.6207
  0
LINE
  8
0-d
  6
CONTINUOUS
 62
    7
 10
150.00001
 20
1660.6207
 11
1110
 21
1660.6207
  0
LINE
  8
0-d
  6
CONTINUOUS
 62
    7
 10
149.99989
 20
77.999978
 11
1110.0002
 21
77.999978
  0
LINE
  8
0-d
  6
CONTINUOUS
 62
    7
 10
149.99989
 20
17.999985
 11
149.99989
 21
125.99996
  0
LINE
  8
0-d
  6
CONTINUOUS
 62
    7
 10
149.99989
 20
17.999985
 11
1110.0002
 21
17.999985
  0
LINE
  8
0-d
  6
CONTINUOUS
 62
    7
 10
1110.0002
 20
125.99996
 11
1110.0002
 21
17.999985
  0
LINE
  8
0-d
  6
CONTINUOUS
 62
    7
 10
149.99989
 20
125.99996
 11
1110.0002
 21
125.99996
  0
LINE
  8
0-d
  6
CONTINUOUS
 62
    7
 10
629.99999
 20
125.99996
 11
629.99999
 21
17.999985
  0
LINE
  8
0-d
  6
CONTINUOUS
 62
    7
 10
390.00009
 20
17.999985
 11
390.00009
 21
77.999978
  0
LINE
  8
0-d
  6
CONTINUOUS
 62
    7
 10
629.99999
 20
77.999978
 11
629.99999
 21
125.99998
  0
LINE
  8
0-d
  6
CONTINUOUS
 62
    7
 10
509.99989
 20
17.999985
 11
509.99989
 21
77.999978
  0
LINE
  8
0-d
  6
CONTINUOUS
 62
    7
 10
171.00011
 20
17.999985
 11
171.00011
 21
77.999978
  0
LINE
  8
0-d
  6
CONTINUOUS
 62
    7
 10
411.00001
 20
17.999985
 11
411.00001
 21
77.999978
  0
LINE
  8
0-d
  6
CONTINUOUS
 62
    7
 10
530.99996
 20
17.999985
 11
530.99996
 21
77.999978
  0
LINE
  8
0-d
  6
CONTINUOUS
 62
    7
 10
609.00007
 20
77.999978
 11
609.00007
 21
125.99998
  0
LINE
  8
0-d
  6
CONTINUOUS
 62
    7
 10
930.00024
 20
77.999978
 11
930.00024
 21
125.99998
  0
LINE
  8
0-d
  6
CONTINUOUS
 62
    7
 10
951.00016
 20
77.999978
 11
951.00016
 21
125.99998
  0
LINE
  8
0-8
  6
CONTINUOUS
 62
    7
 10
210.00024
 20
1044.6483
 11
210.00024
 21
1474.6477
  0
LINE
  8
0-8
  6
CONTINUOUS
 62
    7
 10
390.00009
 20
1531.9127
 11
870.00078
 21
1531.9127
  0
LINE
  8
0-8
  6
CONTINUOUS
 62
    7
 10
472.49999
 20
920.77202
 11
787.49999
 21
920.77202
  0
LINE
  8
0-2
  6
CONTINUOUS
 62
    3
 10
390.00009
 20
1179.6486
 11
390.00009
 21
1144.6482
  0
LINE
  8
0-2
  6
CONTINUOUS
 62
    3
 10
472.49999
 20
1089.6485
 11
787.50088
 21
1089.6485
  0
LINE
  8
0-2
  6
CONTINUOUS
 62
    3
 10
472.49999
 20
1099.6482
 11
787.50088
 21
1099.6482
  0
LINE
  8
0-2
  6
CONTINUOUS
 62
    3
 10
472.49999
 20
1054.6484
 11
787.50088
 21
1054.6484
  0
LINE
  8
0-2
  6
CONTINUOUS
 62
    3
 10
472.49999
 20
1044.6486
 11
787.50088
 21
1044.6486
  0
LINE
  8
0-2
  6
CONTINUOUS
 62
    3
 10
472.49999
 20
1089.6485
 11
472.49999
 21
1054.6481
  0
LINE
  8
0-2
  6
CONTINUOUS
 62
    3
 10
787.49999
 20
1089.6485
 11
787.49999
 21
1054.6481
  0
LINE
  8
0-2
  6
CONTINUOUS
 62
    3
 10
472.49999
 20
1134.6486
 11
472.49999
 21
1099.6482
  0
LINE
  8
0-8
  6
CONTINUOUS
 62
    7
 10
472.49999
 20
1003.0823
 11
472.49999
 21
920.77202
  0
LINE
  8
0-8
  6
CONTINUOUS
 62
    7
 10
787.49999
 20
1003.0823
 11
787.49999
 21
920.77202
  0
LINE
  8
0-2
  6
CONTINUOUS
 62
    3
 10
787.49999
 20
1089.6485
 11
787.49999
 21
1054.6481
  0
LINE
  8
0-2
  6
CONTINUOUS
 62
    3
 10
870.00004
 20
1179.6486
 11
870.00004
 21
1144.6482
  0
LINE
  8
0-2
  6
CONTINUOUS
 62
    3
 10
390.00009
 20
1404.6489
 11
390.00009
 21
1369.6485
  0
LINE
  8
0-2
  6
CONTINUOUS
 62
    3
 10
870.00004
 20
1404.6489
 11
870.00004
 21
1369.6485
  0
LINE
  8
0-2
  6
CONTINUOUS
 62
    3
 10
629.99999
 20
1474.6486
 11
526.07705
 21
1414.6487
  0
LINE
  8
0-8
  6
CONTINUOUS
 62
    7
 10
298.63185
 20
1044.6483
 11
210.00024
 21
1044.6483
  0
LINE
  8
0-8
  6
CONTINUOUS
 62
    7
 10
341.13112
 20
1474.6477
 11
210.00024
 21
1474.6477
  0
LINE
  8
0-8
  6
CONTINUOUS
 62
    7
 10
390.00009
 20
1449.2473
 11
390.00009
 21
1531.9127
  0
LINE
  8
0-8
  6
CONTINUOUS
 62
    7
 10
870.00078
 20
1449.2473
 11
870.00078
 21
1531.9127
  0
LINE
  8
0-2
  6
CONTINUOUS
 62
    3
 10
390.00009
 20
1359.6491
 11
390.00009
 21
1189.6482
  0
LINE
  8
0-2
  6
CONTINUOUS
 62
    3
 10
870.00078
 20
1359.6491
 11
870.00078
 21
1189.6482
  0
LINE
  8
0-2
  6
CONTINUOUS
 62
    3
 10
390.00009
 20
1414.6487
 11
629.99999
 21
1414.6487
  0
LINE
  8
0-2
  6
CONTINUOUS
 62
    3
 10
390.00009
 20
1404.6489
 11
629.99999
 21
1404.6489
  0
LINE
  8
0-2
  6
CONTINUOUS
 62
    3
 10
390.00009
 20
1369.6488
 11
629.99999
 21
1369.6488
  0
LINE
  8
0-2
  6
CONTINUOUS
 62
    3
 10
390.00009
 20
1359.6491
 11
629.99999
 21
1359.6491
  0
LINE
  8
0-2
  6
CONTINUOUS
 62
    3
 10
733.92293
 20
1414.6487
 11
870.00078
 21
1414.6487
  0
LINE
  8
0-2
  6
CONTINUOUS
 62
    3
 10
751.24318
 20
1404.6489
 11
870.00078
 21
1404.6489
  0
LINE
  8
0-2
  6
CONTINUOUS
 62
    3
 10
811.86514
 20
1369.6488
 11
870.00078
 21
1369.6488
  0
LINE
  8
0-2
  6
CONTINUOUS
 62
    3
 10
829.18538
 20
1359.6491
 11
870.00078
 21
1359.6491
  0
LINE
  8
0-2
  6
CONTINUOUS
 62
    3
 10
390.00009
 20
1134.6486
 11
629.99999
 21
1134.6486
  0
LINE
  8
0-2
  6
CONTINUOUS
 62
    3
 10
390.00009
 20
1144.6484
 11
629.99999
 21
1144.6484
  0
LINE
  8
0-2
  6
CONTINUOUS
 62
    3
 10
390.00009
 20
1179.6486
 11
629.99999
 21
1179.6486
  0
LINE
  8
0-2
  6
CONTINUOUS
 62
    3
 10
390.00009
 20
1189.6482
 11
629.99999
 21
1189.6482
  0
LINE
  8
0-2
  6
CONTINUOUS
 62
    3
 10
787.49999
 20
1134.6486
 11
870.00078
 21
1134.6486
  0
LINE
  8
0-2
  6
CONTINUOUS
 62
    3
 10
787.49999
 20
1144.6484
 11
870.00078
 21
1144.6484
  0
LINE
  8
0-2
  6
CONTINUOUS
 62
    3
 10
787.49999
 20
1179.6486
 11
870.00078
 21
1179.6486
  0
LINE
  8
0-2
  6
CONTINUOUS
 62
    3
 10
787.49999
 20
1189.6482
 11
870.00078
 21
1189.6482
  0
LINE
  8
0-2
  6
CONTINUOUS
 62
    3
 10
629.99999
 20
1319.6489
 11
787.50147
 21
1319.6489
  0
LINE
  8
0-2
  6
CONTINUOUS
 62
    3
 10
629.99999
 20
1329.6487
 11
787.50088
 21
1329.6487
  0
LINE
  8
0-2
  6
CONTINUOUS
 62
    3
 10
787.49999
 20
1319.6489
 11
787.49999
 21
1099.6482
  0
LINE
  8
0-5
  6
CONTINUOUS
 62
    3
 10
787.50088
 20
1383.7156
 11
629.99999
 21
1383.7156
  0
LINE
  8
0-5
  6
CONTINUOUS
 62
    3
 10
787.50088
 20
1329.6487
 11
787.50088
 21
1383.7156
  0
LINE
  8
0-5
  6
CONTINUOUS
 62
    4
 10
787.50088
 20
1380.7155
 11
629.99999
 21
1380.7155
  0
LINE
  8
0-5
  6
CONTINUOUS
 62
    4
 10
787.50088
 20
1377.7156
 11
629.99999
 21
1377.7156
  0
LINE
  8
0-5
  6
CONTINUOUS
 62
    4
 10
787.50088
 20
1374.7155
 11
629.99999
 21
1374.7155
  0
LINE
  8
0-5
  6
CONTINUOUS
 62
    4
 10
787.50088
 20
1371.7156
 11
629.99999
 21
1371.7156
  0
LINE
  8
0-5
  6
CONTINUOUS
 62
    4
 10
787.50088
 20
1368.7156
 11
629.99999
 21
1368.7156
  0
LINE
  8
0-5
  6
CONTINUOUS
 62
    4
 10
787.50088
 20
1365.7156
 11
629.99999
 21
1365.7156
  0
LINE
  8
0-5
  6
CONTINUOUS
 62
    4
 10
787.50088
 20
1362.7156
 11
629.99999
 21
1362.7156
  0
LINE
  8
0-5
  6
CONTINUOUS
 62
    4
 10
787.50088
 20
1359.7156
 11
629.99999
 21
1359.7156
  0
LINE
  8
0-5
  6
CONTINUOUS
 62
    4
 10
787.50088
 20
1356.7156
 11
629.99999
 21
1356.7156
  0
LINE
  8
0-5
  6
CONTINUOUS
 62
    4
 10
787.50088
 20
1353.7155
 11
629.99999
 21
1353.7155
  0
LINE
  8
0-5
  6
CONTINUOUS
 62
    4
 10
787.50088
 20
1350.7155
 11
629.99999
 21
1350.7155
  0
LINE
  8
0-5
  6
CONTINUOUS
 62
    4
 10
787.50088
 20
1347.7155
 11
629.99999
 21
1347.7155
  0
LINE
  8
0-5
  6
CONTINUOUS
 62
    4
 10
787.50088
 20
1344.7157
 11
629.99999
 21
1344.7157
  0
LINE
  8
0-5
  6
CONTINUOUS
 62
    4
 10
787.50088
 20
1341.7155
 11
629.99999
 21
1341.7155
  0
LINE
  8
0-5
  6
CONTINUOUS
 62
    4
 10
787.50088
 20
1338.7156
 11
629.99999
 21
1338.7156
  0
LINE
  8
0-5
  6
CONTINUOUS
 62
    4
 10
787.50088
 20
1335.7155
 11
629.99999
 21
1335.7155
  0
LINE
  8
0-5
  6
CONTINUOUS
 62
    4
 10
787.50088
 20
1332.7155
 11
629.99999
 21
1332.7155
  0
LINE
  8
0-5
  6
CONTINUOUS
 62
    4
 10
784.50072
 20
1329.6487
 11
784.50072
 21
1383.7156
  0
LINE
  8
0-5
  6
CONTINUOUS
 62
    4
 10
781.50086
 20
1329.6487
 11
781.50086
 21
1383.7156
  0
LINE
  8
0-5
  6
CONTINUOUS
 62
    4
 10
778.5007
 20
1329.6487
 11
778.5007
 21
1383.7156
  0
LINE
  8
0-5
  6
CONTINUOUS
 62
    4
 10
775.50084
 20
1329.6487
 11
775.50084
 21
1383.7156
  0
LINE
  8
0-5
  6
CONTINUOUS
 62
    4
 10
772.50083
 20
1329.6487
 11
772.50083
 21
1383.7156
  0
LINE
  8
0-5
  6
CONTINUOUS
 62
    4
 10
769.50082
 20
1329.6487
 11
769.50082
 21
1383.7156
  0
LINE
  8
0-5
  6
CONTINUOUS
 62
    4
 10
766.50081
 20
1329.6487
 11
766.50081
 21
1383.7156
  0
LINE
  8
0-5
  6
CONTINUOUS
 62
    4
 10
763.5008
 20
1329.6487
 11
763.5008
 21
1383.7156
  0
LINE
  8
0-5
  6
CONTINUOUS
 62
    4
 10
760.50079
 20
1329.6487
 11
760.50079
 21
1383.7156
  0
LINE
  8
0-5
  6
CONTINUOUS
 62
    4
 10
757.50078
 20
1329.6487
 11
757.50078
 21
1383.7156
  0
LINE
  8
0-5
  6
CONTINUOUS
 62
    4
 10
754.50077
 20
1329.6487
 11
754.50077
 21
1383.7156
  0
LINE
  8
0-5
  6
CONTINUOUS
 62
    4
 10
751.50076
 20
1329.6487
 11
751.50076
 21
1383.7156
  0
LINE
  8
0-5
  6
CONTINUOUS
 62
    4
 10
748.5009
 20
1329.6487
 11
748.5009
 21
1383.7156
  0
LINE
  8
0-5
  6
CONTINUOUS
 62
    4
 10
745.50074
 20
1329.6487
 11
745.50074
 21
1383.7156
  0
LINE
  8
0-5
  6
CONTINUOUS
 62
    4
 10
742.50088
 20
1329.6487
 11
742.50088
 21
1383.7156
  0
LINE
  8
0-5
  6
CONTINUOUS
 62
    4
 10
739.50072
 20
1329.6487
 11
739.50072
 21
1383.7156
  0
LINE
  8
0-5
  6
CONTINUOUS
 62
    4
 10
736.50086
 20
1329.6487
 11
736.50086
 21
1383.7156
  0
LINE
  8
0-5
  6
CONTINUOUS
 62
    4
 10
733.50085
 20
1329.6487
 11
733.50085
 21
1383.7156
  0
LINE
  8
0-5
  6
CONTINUOUS
 62
    4
 10
730.50084
 20
1329.6487
 11
730.50084
 21
1383.7156
  0
LINE
  8
0-5
  6
CONTINUOUS
 62
    4
 10
727.50083
 20
1329.6487
 11
727.50083
 21
1383.7156
  0
LINE
  8
0-5
  6
CONTINUOUS
 62
    4
 10
724.50082
 20
1329.6487
 11
724.50082
 21
1383.7156
  0
LINE
  8
0-5
  6
CONTINUOUS
 62
    4
 10
721.50081
 20
1329.6487
 11
721.50081
 21
1383.7156
  0
LINE
  8
0-5
  6
CONTINUOUS
 62
    4
 10
718.5008
 20
1329.6487
 11
718.5008
 21
1383.7156
  0
LINE
  8
0-5
  6
CONTINUOUS
 62
    4
 10
715.50079
 20
1329.6487
 11
715.50079
 21
1383.7156
  0
LINE
  8
0-5
  6
CONTINUOUS
 62
    4
 10
712.50078
 20
1329.6487
 11
712.50078
 21
1383.7156
  0
LINE
  8
0-5
  6
CONTINUOUS
 62
    4
 10
709.50092
 20
1329.6487
 11
709.50092
 21
1383.7156
  0
LINE
  8
0-5
  6
CONTINUOUS
 62
    4
 10
706.50076
 20
1329.6487
 11
706.50076
 21
1383.7156
  0
LINE
  8
0-5
  6
CONTINUOUS
 62
    4
 10
703.5009
 20
1329.6487
 11
703.5009
 21
1383.7156
  0
LINE
  8
0-5
  6
CONTINUOUS
 62
    4
 10
700.50074
 20
1329.6487
 11
700.50074
 21
1383.7156
  0
LINE
  8
0-5
  6
CONTINUOUS
 62
    4
 10
697.50088
 20
1329.6487
 11
697.50088
 21
1383.7156
  0
LINE
  8
0-5
  6
CONTINUOUS
 62
    4
 10
694.50087
 20
1329.6487
 11
694.50087
 21
1383.7156
  0
LINE
  8
0-5
  6
CONTINUOUS
 62
    4
 10
691.50086
 20
1329.6487
 11
691.50086
 21
1383.7156
  0
LINE
  8
0-5
  6
CONTINUOUS
 62
    4
 10
688.50085
 20
1329.6487
 11
688.50085
 21
1383.7156
  0
LINE
  8
0-5
  6
CONTINUOUS
 62
    4
 10
685.50084
 20
1329.6487
 11
685.50084
 21
1383.7156
  0
LINE
  8
0-5
  6
CONTINUOUS
 62
    4
 10
682.50083
 20
1329.6487
 11
682.50083
 21
1383.7156
  0
LINE
  8
0-5
  6
CONTINUOUS
 62
    4
 10
679.50082
 20
1329.6487
 11
679.50082
 21
1383.7156
  0
LINE
  8
0-5
  6
CONTINUOUS
 62
    4
 10
676.50081
 20
1329.6487
 11
676.50081
 21
1383.7156
  0
LINE
  8
0-5
  6
CONTINUOUS
 62
    4
 10
673.5008
 20
1329.6487
 11
673.5008
 21
1383.7156
  0
LINE
  8
0-5
  6
CONTINUOUS
 62
    4
 10
670.50094
 20
1329.6487
 11
670.50094
 21
1383.7156
  0
LINE
  8
0-5
  6
CONTINUOUS
 62
    4
 10
667.50078
 20
1329.6487
 11
667.50078
 21
1383.7156
  0
LINE
  8
0-5
  6
CONTINUOUS
 62
    4
 10
664.50077
 20
1329.6487
 11
664.50077
 21
1383.7156
  0
LINE
  8
0-5
  6
CONTINUOUS
 62
    4
 10
661.50076
 20
1329.6487
 11
661.50076
 21
1383.7156
  0
LINE
  8
0-5
  6
CONTINUOUS
 62
    4
 10
658.5009
 20
1329.6487
 11
658.5009
 21
1383.7156
  0
LINE
  8
0-5
  6
CONTINUOUS
 62
    4
 10
655.50089
 20
1329.6487
 11
655.50089
 21
1383.7156
  0
LINE
  8
0-5
  6
CONTINUOUS
 62
    4
 10
652.50088
 20
1329.6487
 11
652.50088
 21
1383.7156
  0
LINE
  8
0-5
  6
CONTINUOUS
 62
    4
 10
649.50087
 20
1329.6487
 11
649.50087
 21
1383.7156
  0
LINE
  8
0-5
  6
CONTINUOUS
 62
    4
 10
646.50086
 20
1329.6487
 11
646.50086
 21
1383.7156
  0
LINE
  8
0-5
  6
CONTINUOUS
 62
    4
 10
643.50085
 20
1329.6487
 11
643.50085
 21
1383.7156
  0
LINE
  8
0-5
  6
CONTINUOUS
 62
    4
 10
640.50084
 20
1329.6487
 11
640.50084
 21
1383.7156
  0
LINE
  8
0-5
  6
CONTINUOUS
 62
    4
 10
637.50083
 20
1329.6487
 11
637.50083
 21
1383.7156
  0
LINE
  8
0-5
  6
CONTINUOUS
 62
    4
 10
634.50082
 20
1329.6487
 11
634.50082
 21
1383.7156
  0
LINE
  8
0-5
  6
CONTINUOUS
 62
    4
 10
631.50096
 20
1329.6487
 11
631.50096
 21
1383.7156
  0
LINE
  8
0-1
  6
CENTER2
 62
    7
 10
629.99999
 20
1474.6486
 11
629.99999
 21
1011.8918
  0
LINE
  8
0-2
  6
CONTINUOUS
 62
    3
 10
787.49999
 20
1356.6489
 11
834.38147
 21
1356.6489
  0
LINE
  8
0-2
  6
CONTINUOUS
 62
    3
 10
629.99999
 20
1474.6486
 11
834.38184
 21
1356.6489
  0
ARC
  8
0-2
  6
CONTINUOUS
 62
    3
 10
472.49999
 20
1049.6484
 40
4.9997686
 50
90
 51
270
  0
ARC
  8
0-2
  6
CONTINUOUS
 62
    3
 10
472.49999
 20
1094.6483
 40
4.9997686
 50
90
 51
270
  0
ARC
  8
0-2
  6
CONTINUOUS
 62
    3
 10
787.49999
 20
1049.6484
 40
4.9997686
 50
270
 51
90
  0
ARC
  8
0-2
  6
CONTINUOUS
 62
    3
 10
787.49999
 20
1094.6483
 40
4.9997686
 50
270
 51
90
  0
ARC
  8
0-2
  6
CONTINUOUS
 62
    3
 10
390.00009
 20
1184.6486
 40
4.9997686
 50
90
 51
270
  0
ARC
  8
0-2
  6
CONTINUOUS
 62
    3
 10
390.00009
 20
1139.6484
 40
4.9997686
 50
90
 51
270
  0
ARC
  8
0-2
  6
CONTINUOUS
 62
    3
 10
870.00004
 20
1184.6486
 40
4.9997686
 50
270
 51
90
  0
ARC
  8
0-2
  6
CONTINUOUS
 62
    3
 10
870.00004
 20
1139.6484
 40
4.9997686
 50
270
 51
90
  0
ARC
  8
0-2
  6
CONTINUOUS
 62
    3
 10
390.00009
 20
1409.649
 40
4.9997686
 50
90
 51
270
  0
ARC
  8
0-2
  6
CONTINUOUS
 62
    3
 10
390.00009
 20
1364.6487
 40
4.9997686
 50
90
 51
270
  0
ARC
  8
0-2
  6
CONTINUOUS
 62
    3
 10
870.00004
 20
1409.649
 40
4.9997686
 50
270
 51
90
  0
ARC
  8
0-2
  6
CONTINUOUS
 62
    3
 10
870.00004
 20
1364.6487
 40
4.9997686
 50
270
 51
90
  0
ARC
  8
0-2
  6
CONTINUOUS
 62
    3
 10
787.50088
 20
1324.6487
 40
4.9997686
 50
270
 51
90
  0
TEXT
  8
0-d
 10
152.9999
 20
58.499969
 40
15
 41
1
 50
0
  1
図
  0
TEXT
  8
0-d
 10
152.9999
 20
22.499981
 40
15
 41
1
 50
0
  1
番
  0
TEXT
  8
0-d
 10
393.0001
 20
58.499969
 40
15
 41
1
 50
0
  1
承
  0
TEXT
  8
0-d
 10
393.0001
 20
22.499981
 40
15
 41
1
 50
0
  1
認
  0
TEXT
  8
0-d
 10
612.00008
 20
106.49999
 40
15
 41
1
 50
0
  1
尺
  0
TEXT
  8
0-d
 10
612.00008
 20
82.499993
 40
15
 41
1
 50
0
  1
度
  0
TEXT
  8
0-d
 10
513.00005
 20
58.499969
 40
15
 41
1
 50
0
  1
製
  0
TEXT
  8
0-d
 10
513.00005
 20
22.499981
 40
15
 41
1
 50
0
  1
図
  0
TEXT
  8
0-d
 10
933.0001
 20
106.49999
 40
15
 41
1
 50
0
  1
日
  0
TEXT
  8
0-d
 10
933.0001
 20
82.499993
 40
15
 41
1
 50
0
  1
付
  0
TEXT
  8
0-d
 10
666.85571
 20
62.089344
 40
12
 41
1
 50
0
  1
株式
  0
TEXT
  8
0-d
 10
666.85571
 20
49.11109
 40
12
 41
1
 50
0
  1
会社
  0
TEXT
  8
0-d
 10
704.53465
 20
49.948393
 40
24
 41
1
 50
0
  1
スズキベンチレーター
  0
TEXT
  8
0-d
 10
742.75074
 20
20.414573
 40
12
 41
1
 50
0
  1
TEL(054)296-7000  FAX(054)296-7001
  0
TEXT
  8
0-d
 10
650.60945
 20
90.060442
 40
24
 41
1
 50
0
  1
１／６
  0
TEXT
  8
0-8
 10
606.45317
 20
926.8966
 40
18
 41
1
 50
0
  1
315φ
  0
TEXT
  8
0-8
 10
197.18513
 20
1264.4101
 40
18
 41
1
 50
90
  1
430
  0
TEXT
  8
0-8
 10
584.0715
 20
1536.7371
 40
18
 41
1
 50
0.0001678
  1
480φ
  0
TEXT
  8
0-d
 10
182.15458
 20
51.341207
 40
18
 41
1
 50
0
  1
30-A07a
  0
TEXT
  8
0-2
 10
153.00001
 20
1663.6207
 40
30
 41
1
 50
0
  1
ＤＳ－３００　　自然換気　直付型（網付）断面
  0
TEXT
  8
0-d
 10
174.92318
 20
86.857909
 40
15
 41
1
 50
0
  1
ＤＳ－３００　自然換気　直付型（網付）断面
  0
TEXT
  8
0-d
 10
741.40759
 20
35.187631
 40
12
 41
1
 50
0
  1
〒421-2114　静岡市葵区安倍口新田１５２番地
  0
POINT
  8
0-8
 62
    2
 10
210.00024
 20
1044.6483
  0
POINT
  8
0-8
 62
    2
 10
210.00024
 20
1474.6477
  0
POINT
  8
0-8
 62
    2
 10
390.00009
 20
1531.9127
  0
POINT
  8
0-8
 62
    2
 10
870.00078
 20
1531.9127
  0
POINT
  8
0-8
 62
    2
 10
472.49999
 20
920.77202
  0
POINT
  8
0-8
 62
    2
 10
787.49999
 20
920.77202
  0
ENDSEC
  0
EOF
