  0
SECTION
  2
HEADER
  9
$EXTMIN
 10
0
 20
0
  9
$EXTMAX
 10
2520
 20
1782
  0
ENDSEC
  0
SECTION
  2
TABLES
  0
TABLE
  2
LTYPE
 70
     9
  0
LTYPE
  2
CONTINUOUS
 70
    64
  3
実線
 72
    65
 73
     0
 40
0.0
  0
LTYPE
  2
DASHED1
 70
    64
  3
--  --  --  --  --  --  --  --  
 72
    65
 73
     2
 40
2.5
 49
1.25
 49
-1.25
  0
LTYPE
  2
DASHED2
 70
    64
  3
----    ----    ----    ----    
 72
    65
 73
     2
 40
5.0
 49
2.5
 49
-2.5
  0
LTYPE
  2
DASHED3
 70
    64
  3
------  ------  ------  ------  
 72
    65
 73
     2
 40
5.0
 49
3.75
 49
-1.25
  0
LTYPE
  2
CENTER1
 70
    64
  3
----- - ----- - ----- - ----- - 
 72
    65
 73
     4
 40
10.0
 49
6.25
 49
-1.25
 49
1.25
 49
-1.25
  0
LTYPE
  2
CENTER2
 70
    64
  3
----------  --  ----------  --  
 72
    65
 73
     4
 40
20.0
 49
12.5
 49
-2.5
 49
2.5
 49
-2.5
  0
LTYPE
  2
PHANTOM1
 70
    64
  3
--- - - --- - - --- - - --- - - 
 72
    65
 73
     6
 40
10.0
 49
3.25
 49
-1.25
 49
1.25
 49
-1.25
 49
1.25
 49
-1.25
  0
LTYPE
  2
PHANTOM2
 70
    64
  3
--------  -  -  --------  -  -  
 72
    65
 73
     6
 40
20.0
 49
10.0
 49
-2.5
 49
1.25
 49
-2.5
 49
1.25
 49
-2.5
  0
LTYPE
  2
DOT
 70
    64
  3
-   -   -   -   -   -   -   -   
 72
    65
 73
     2
 40
2.5
 49
0.625
 49
-1.875
  0
ENDTAB
  0
TABLE
  2
STYLE
 70
    1
  0
STYLE
  2
STANDARD
 70
    64
 40
0.0
 41
1.0
 42
0.0
 50
0.0
 71
     0
  3
TXT
  4
BIGFONT
  0
ENDTAB
  0
TABLE
  2
LAYER
 70
    5
  0
LAYER
  2
0-1
 70
   64
 62
    7
  6
CONTINUOUS
  0
LAYER
  2
0-2
 70
   64
 62
    7
  6
CONTINUOUS
  0
LAYER
  2
0-8
 70
   64
 62
    7
  6
CONTINUOUS
  0
LAYER
  2
0-d
 70
   64
 62
    7
  6
CONTINUOUS
  0
LAYER
  2
ADD_LINE
 70
   64
 62
    7
  6
CONTINUOUS
  0
ENDTAB
  0
ENDSEC
  0
SECTION
  2
ENTITIES
  0
LINE
  8
0-d
  6
CONTINUOUS
 62
    7
 10
150.00001
 20
1654.6207
 11
1110
 21
1654.6207
  0
LINE
  8
0-d
  6
CONTINUOUS
 62
    7
 10
150.00001
 20
1660.6207
 11
1110
 21
1660.6207
  0
LINE
  8
0-d
  6
CONTINUOUS
 62
    7
 10
149.99989
 20
77.999978
 11
1110.0002
 21
77.999978
  0
LINE
  8
0-d
  6
CONTINUOUS
 62
    7
 10
149.99989
 20
17.999985
 11
149.99989
 21
125.99996
  0
LINE
  8
0-d
  6
CONTINUOUS
 62
    7
 10
149.99989
 20
17.999985
 11
1110.0002
 21
17.999985
  0
LINE
  8
0-d
  6
CONTINUOUS
 62
    7
 10
1110.0002
 20
125.99996
 11
1110.0002
 21
17.999985
  0
LINE
  8
0-d
  6
CONTINUOUS
 62
    7
 10
149.99989
 20
125.99996
 11
1110.0002
 21
125.99996
  0
LINE
  8
0-d
  6
CONTINUOUS
 62
    7
 10
629.99999
 20
125.99996
 11
629.99999
 21
17.999985
  0
LINE
  8
0-d
  6
CONTINUOUS
 62
    7
 10
390.00009
 20
17.999985
 11
390.00009
 21
77.999978
  0
LINE
  8
0-d
  6
CONTINUOUS
 62
    7
 10
629.99999
 20
77.999978
 11
629.99999
 21
125.99998
  0
LINE
  8
0-d
  6
CONTINUOUS
 62
    7
 10
509.99989
 20
17.999985
 11
509.99989
 21
77.999978
  0
LINE
  8
0-d
  6
CONTINUOUS
 62
    7
 10
171.00011
 20
17.999985
 11
171.00011
 21
77.999978
  0
LINE
  8
0-d
  6
CONTINUOUS
 62
    7
 10
411.00001
 20
17.999985
 11
411.00001
 21
77.999978
  0
LINE
  8
0-d
  6
CONTINUOUS
 62
    7
 10
530.99996
 20
17.999985
 11
530.99996
 21
77.999978
  0
LINE
  8
0-d
  6
CONTINUOUS
 62
    7
 10
609.00007
 20
77.999978
 11
609.00007
 21
125.99998
  0
LINE
  8
0-d
  6
CONTINUOUS
 62
    7
 10
930.00024
 20
77.999978
 11
930.00024
 21
125.99998
  0
LINE
  8
0-d
  6
CONTINUOUS
 62
    7
 10
951.00016
 20
77.999978
 11
951.00016
 21
125.99998
  0
LINE
  8
0-8
  6
CONTINUOUS
 62
    7
 10
210.0002
 20
966.99669
 11
210.0002
 21
1446.9959
  0
LINE
  8
0-8
  6
CONTINUOUS
 62
    7
 10
390.00002
 20
1504.2608
 11
870.00078
 21
1504.2608
  0
LINE
  8
0-2
  6
CONTINUOUS
 62
    3
 10
390.00002
 20
1151.9968
 11
390.00002
 21
1116.9963
  0
LINE
  8
0-2
  6
CONTINUOUS
 62
    3
 10
870.00004
 20
1151.9968
 11
870.00004
 21
1116.9963
  0
LINE
  8
0-2
  6
CONTINUOUS
 62
    3
 10
390.00002
 20
1376.9969
 11
390.00002
 21
1341.9964
  0
LINE
  8
0-2
  6
CONTINUOUS
 62
    3
 10
870.00004
 20
1376.9969
 11
870.00004
 21
1341.9964
  0
LINE
  8
0-2
  6
CONTINUOUS
 62
    3
 10
629.99999
 20
1446.9967
 11
526.07697
 21
1386.9968
  0
LINE
  8
0-8
  6
CONTINUOUS
 62
    7
 10
341.13105
 20
1446.9959
 11
210.0002
 21
1446.9959
  0
LINE
  8
0-8
  6
CONTINUOUS
 62
    7
 10
390.00002
 20
1421.5955
 11
390.00002
 21
1504.2608
  0
LINE
  8
0-8
  6
CONTINUOUS
 62
    7
 10
870.00078
 20
1421.5955
 11
870.00078
 21
1504.2608
  0
LINE
  8
0-2
  6
CONTINUOUS
 62
    3
 10
390.00002
 20
1331.9971
 11
390.00002
 21
1161.9965
  0
LINE
  8
0-2
  6
CONTINUOUS
 62
    3
 10
870.00078
 20
1331.9971
 11
870.00078
 21
1161.9965
  0
LINE
  8
0-2
  6
CONTINUOUS
 62
    3
 10
390.00002
 20
1386.9968
 11
629.99999
 21
1386.9968
  0
LINE
  8
0-2
  6
CONTINUOUS
 62
    3
 10
390.00002
 20
1376.9969
 11
629.99999
 21
1376.9969
  0
LINE
  8
0-2
  6
CONTINUOUS
 62
    3
 10
390.00002
 20
1341.9967
 11
629.99999
 21
1341.9967
  0
LINE
  8
0-2
  6
CONTINUOUS
 62
    3
 10
390.00002
 20
1331.9971
 11
629.99999
 21
1331.9971
  0
LINE
  8
0-2
  6
CONTINUOUS
 62
    3
 10
733.92301
 20
1386.9968
 11
870.00078
 21
1386.9968
  0
LINE
  8
0-2
  6
CONTINUOUS
 62
    3
 10
751.24318
 20
1376.9969
 11
870.00078
 21
1376.9969
  0
LINE
  8
0-2
  6
CONTINUOUS
 62
    3
 10
811.86514
 20
1341.9967
 11
870.00078
 21
1341.9967
  0
LINE
  8
0-2
  6
CONTINUOUS
 62
    3
 10
390.00002
 20
1106.9968
 11
629.99999
 21
1106.9968
  0
LINE
  8
0-2
  6
CONTINUOUS
 62
    3
 10
390.00002
 20
1116.9966
 11
629.99999
 21
1116.9966
  0
LINE
  8
0-2
  6
CONTINUOUS
 62
    3
 10
390.00002
 20
1151.9968
 11
629.99999
 21
1151.9968
  0
LINE
  8
0-2
  6
CONTINUOUS
 62
    3
 10
390.00002
 20
1161.9965
 11
629.99999
 21
1161.9965
  0
LINE
  8
0-2
  6
CONTINUOUS
 62
    3
 10
787.50006
 20
1106.9968
 11
870.00078
 21
1106.9968
  0
LINE
  8
0-2
  6
CONTINUOUS
 62
    3
 10
787.50006
 20
1116.9966
 11
870.00078
 21
1116.9966
  0
LINE
  8
0-2
  6
CONTINUOUS
 62
    3
 10
787.50006
 20
1151.9968
 11
870.00078
 21
1151.9968
  0
LINE
  8
0-2
  6
CONTINUOUS
 62
    3
 10
787.50006
 20
1161.9965
 11
870.00078
 21
1161.9965
  0
LINE
  8
0-2
  6
CONTINUOUS
 62
    3
 10
629.99999
 20
1291.9969
 11
787.50155
 21
1291.9969
  0
LINE
  8
0-2
  6
CONTINUOUS
 62
    3
 10
629.99999
 20
1301.9968
 11
787.50081
 21
1301.9968
  0
LINE
  8
0-2
  6
CONTINUOUS
 62
    3
 10
787.50006
 20
1291.9969
 11
787.50006
 21
1071.9965
  0
LINE
  8
0-2
  6
CONTINUOUS
 62
    3
 10
787.49999
 20
1061.9964
 11
787.49999
 21
1026.996
  0
LINE
  8
0-2
  6
CONTINUOUS
 62
    3
 10
370
 20
966.9958
 11
370
 21
1026.9957
  0
LINE
  8
0-2
  6
CONTINUOUS
 62
    3
 10
889.99998
 20
1026.9957
 11
370
 21
1026.9957
  0
LINE
  8
0-2
  6
CONTINUOUS
 62
    3
 10
889.99998
 20
966.9958
 11
889.99998
 21
1026.9957
  0
LINE
  8
0-2
  6
CONTINUOUS
 62
    3
 10
889.99998
 20
966.9958
 11
370
 21
966.9958
  0
LINE
  8
0-2
  6
CONTINUOUS
 62
    3
 10
787.49999
 20
1061.9965
 11
787.49999
 21
1026.9962
  0
LINE
  8
0-2
  6
CONTINUOUS
 62
    3
 10
889.99998
 20
1026.9957
 11
787.49999
 21
1079.7019
  0
LINE
  8
0-8
  6
CONTINUOUS
 62
    7
 10
370
 20
855.62732
 11
889.99998
 21
855.62732
  0
LINE
  8
0-8
  6
CONTINUOUS
 62
    7
 10
370
 20
945.43053
 11
370
 21
855.62732
  0
LINE
  8
0-8
  6
CONTINUOUS
 62
    7
 10
889.99998
 20
945.43053
 11
889.99998
 21
855.62732
  0
LINE
  8
0-8
  6
CONTINUOUS
 62
    7
 10
257.83783
 20
966.9958
 11
257.83783
 21
1026.9957
  0
LINE
  8
0-8
  6
CONTINUOUS
 62
    7
 10
298.63192
 20
966.9958
 11
257.83783
 21
966.9958
  0
LINE
  8
0-8
  6
CONTINUOUS
 62
    7
 10
341.13105
 20
1026.9957
 11
257.83783
 21
1026.9957
  0
LINE
  8
0-8
  6
CONTINUOUS
 62
    7
 10
341.13105
 20
966.99669
 11
210.0002
 21
966.99669
  0
LINE
  8
0-2
  6
CONTINUOUS
 62
    3
 10
492.50001
 20
1071.9963
 11
787.50073
 21
1071.9963
  0
LINE
  8
0-2
  6
CONTINUOUS
 62
    3
 10
492.50001
 20
1061.9965
 11
787.50073
 21
1061.9964
  0
LINE
  8
0-2
  6
CONTINUOUS
 62
    3
 10
472.49999
 20
1106.9968
 11
472.49999
 21
1079.7019
  0
LINE
  8
0-2
  6
CONTINUOUS
 62
    3
 10
629.99999
 20
1446.9967
 11
834.38147
 21
1328.997
  0
LINE
  8
0-2
  6
CONTINUOUS
 62
    3
 10
629.99999
 20
1328.997
 11
834.38147
 21
1328.997
  0
LINE
  8
0-2
  6
CONTINUOUS
 62
    3
 10
829.18531
 20
1331.9971
 11
870.00078
 21
1331.9971
  0
LINE
  8
0-1
  6
CENTER2
 62
    7
 10
629.99999
 20
1446.9967
 11
629.99999
 21
966.9958
  0
LINE
  8
0-2
  6
CONTINUOUS
 62
    3
 10
370
 20
1026.9957
 11
492.50001
 21
1089.9861
  0
LINE
  8
0-2
  6
CONTINUOUS
 62
    3
 10
492.50001
 20
1089.9861
 11
492.50001
 21
1026.9962
  0
ARC
  8
0-2
  6
CONTINUOUS
 62
    3
 10
390.00002
 20
1156.9968
 40
4.9997686
 50
90
 51
270
  0
ARC
  8
0-2
  6
CONTINUOUS
 62
    3
 10
390.00002
 20
1111.9967
 40
4.9997686
 50
90
 51
270
  0
ARC
  8
0-2
  6
CONTINUOUS
 62
    3
 10
870.00004
 20
1156.9968
 40
4.9997686
 50
270
 51
90
  0
ARC
  8
0-2
  6
CONTINUOUS
 62
    3
 10
870.00004
 20
1111.9967
 40
4.9997686
 50
270
 51
90
  0
ARC
  8
0-2
  6
CONTINUOUS
 62
    3
 10
390.00002
 20
1381.9972
 40
4.9997686
 50
90
 51
270
  0
ARC
  8
0-2
  6
CONTINUOUS
 62
    3
 10
390.00002
 20
1336.9967
 40
4.9997686
 50
90
 51
270
  0
ARC
  8
0-2
  6
CONTINUOUS
 62
    3
 10
870.00004
 20
1381.9972
 40
4.9997686
 50
270
 51
90
  0
ARC
  8
0-2
  6
CONTINUOUS
 62
    3
 10
870.00004
 20
1336.9967
 40
4.9997686
 50
270
 51
90
  0
ARC
  8
0-2
  6
CONTINUOUS
 62
    3
 10
787.50081
 20
1296.9968
 40
4.9997686
 50
270
 51
90
  0
ARC
  8
0-2
  6
CONTINUOUS
 62
    3
 10
787.49999
 20
1066.9962
 40
4.9997686
 50
90
 51
270
  0
TEXT
  8
0-d
 10
152.9999
 20
58.499969
 40
15
 41
1
 50
0
  1
図
  0
TEXT
  8
0-d
 10
152.9999
 20
22.499981
 40
15
 41
1
 50
0
  1
番
  0
TEXT
  8
0-d
 10
393.0001
 20
58.499969
 40
15
 41
1
 50
0
  1
承
  0
TEXT
  8
0-d
 10
393.0001
 20
22.499981
 40
15
 41
1
 50
0
  1
認
  0
TEXT
  8
0-d
 10
612.00008
 20
106.49999
 40
15
 41
1
 50
0
  1
尺
  0
TEXT
  8
0-d
 10
612.00008
 20
82.499993
 40
15
 41
1
 50
0
  1
度
  0
TEXT
  8
0-d
 10
513.00005
 20
58.499969
 40
15
 41
1
 50
0
  1
製
  0
TEXT
  8
0-d
 10
513.00005
 20
22.499981
 40
15
 41
1
 50
0
  1
図
  0
TEXT
  8
0-d
 10
933.0001
 20
106.49999
 40
15
 41
1
 50
0
  1
日
  0
TEXT
  8
0-d
 10
933.0001
 20
82.499993
 40
15
 41
1
 50
0
  1
付
  0
TEXT
  8
0-d
 10
666.85571
 20
62.089344
 40
12
 41
1
 50
0
  1
株式
  0
TEXT
  8
0-d
 10
666.85571
 20
49.11109
 40
12
 41
1
 50
0
  1
会社
  0
TEXT
  8
0-d
 10
704.53465
 20
49.948393
 40
24
 41
1
 50
0
  1
スズキベンチレーター
  0
TEXT
  8
0-d
 10
742.75074
 20
20.414573
 40
12
 41
1
 50
0
  1
TEL(054)296-7000  FAX(054)296-7001
  0
TEXT
  8
0-8
 10
584.0715
 20
1509.0852
 40
18
 41
1
 50
0
  1
480φ
  0
TEXT
  8
0-8
 10
197.18517
 20
1236.7581
 40
18
 41
1
 50
90
  1
480
  0
TEXT
  8
0-8
 10
251.83781
 20
988.74591
 40
18
 41
1
 50
90
  1
60
  0
TEXT
  8
0-d
 10
650.60945
 20
90.060442
 40
24
 41
1
 50
0
  1
１／６
  0
TEXT
  8
0-8
 10
596.28881
 20
858.67417
 40
18
 41
1
 50
0
  1
520x520
  0
TEXT
  8
0-d
 10
182.15458
 20
51.341207
 40
18
 41
1
 50
0
  1
30-A06b
  0
TEXT
  8
0-2
 10
153.00001
 20
1663.6207
 40
30
 41
1
 50
0
  1
ＤＳ－３００　　自然換気　架台型断面
  0
TEXT
  8
0-2
 10
164.31064
 20
86.284987
 40
18
 41
1
 50
0
  1
ＤＳ－３００　　自然換気　架台型断面
  0
TEXT
  8
0-d
 10
741.40759
 20
35.187631
 40
12
 41
1
 50
0
  1
〒421-2114　静岡市葵区安倍口新田１５２番地
  0
POINT
  8
0-8
 62
    2
 10
210.0002
 20
966.99669
  0
POINT
  8
0-8
 62
    2
 10
210.0002
 20
1446.9959
  0
POINT
  8
0-8
 62
    2
 10
390.00002
 20
1504.2608
  0
POINT
  8
0-8
 62
    2
 10
870.00078
 20
1504.2608
  0
POINT
  8
0-8
 62
    2
 10
370
 20
855.62732
  0
POINT
  8
0-8
 62
    2
 10
889.99998
 20
855.62732
  0
POINT
  8
0-8
 62
    2
 10
257.83783
 20
966.9958
  0
POINT
  8
0-8
 62
    2
 10
257.83783
 20
1026.9957
  0
ENDSEC
  0
EOF
