  0
SECTION
  2
HEADER
  9
$EXTMIN
 10
0
 20
0
  9
$EXTMAX
 10
2520
 20
1782
  0
ENDSEC
  0
SECTION
  2
TABLES
  0
TABLE
  2
LTYPE
 70
     9
  0
LTYPE
  2
CONTINUOUS
 70
    64
  3
実線
 72
    65
 73
     0
 40
0.0
  0
LTYPE
  2
DASHED1
 70
    64
  3
--  --  --  --  --  --  --  --  
 72
    65
 73
     2
 40
2.5
 49
1.25
 49
-1.25
  0
LTYPE
  2
DASHED2
 70
    64
  3
----    ----    ----    ----    
 72
    65
 73
     2
 40
5.0
 49
2.5
 49
-2.5
  0
LTYPE
  2
DASHED3
 70
    64
  3
------  ------  ------  ------  
 72
    65
 73
     2
 40
5.0
 49
3.75
 49
-1.25
  0
LTYPE
  2
CENTER1
 70
    64
  3
----- - ----- - ----- - ----- - 
 72
    65
 73
     4
 40
10.0
 49
6.25
 49
-1.25
 49
1.25
 49
-1.25
  0
LTYPE
  2
CENTER2
 70
    64
  3
----------  --  ----------  --  
 72
    65
 73
     4
 40
20.0
 49
12.5
 49
-2.5
 49
2.5
 49
-2.5
  0
LTYPE
  2
PHANTOM1
 70
    64
  3
--- - - --- - - --- - - --- - - 
 72
    65
 73
     6
 40
10.0
 49
3.25
 49
-1.25
 49
1.25
 49
-1.25
 49
1.25
 49
-1.25
  0
LTYPE
  2
PHANTOM2
 70
    64
  3
--------  -  -  --------  -  -  
 72
    65
 73
     6
 40
20.0
 49
10.0
 49
-2.5
 49
1.25
 49
-2.5
 49
1.25
 49
-2.5
  0
LTYPE
  2
DOT
 70
    64
  3
-   -   -   -   -   -   -   -   
 72
    65
 73
     2
 40
2.5
 49
0.625
 49
-1.875
  0
ENDTAB
  0
TABLE
  2
STYLE
 70
    1
  0
STYLE
  2
STANDARD
 70
    64
 40
0.0
 41
1.0
 42
0.0
 50
0.0
 71
     0
  3
TXT
  4
BIGFONT
  0
ENDTAB
  0
TABLE
  2
LAYER
 70
    5
  0
LAYER
  2
0-1
 70
   64
 62
    7
  6
CONTINUOUS
  0
LAYER
  2
0-2
 70
   64
 62
    7
  6
CONTINUOUS
  0
LAYER
  2
0-8
 70
   64
 62
    7
  6
CONTINUOUS
  0
LAYER
  2
0-d
 70
   64
 62
    7
  6
CONTINUOUS
  0
LAYER
  2
ADD_LINE
 70
   64
 62
    7
  6
CONTINUOUS
  0
ENDTAB
  0
ENDSEC
  0
SECTION
  2
ENTITIES
  0
LINE
  8
0-d
  6
CONTINUOUS
 62
    7
 10
150.00001
 20
1654.6207
 11
1110
 21
1654.6207
  0
LINE
  8
0-d
  6
CONTINUOUS
 62
    7
 10
150.00001
 20
1660.6207
 11
1110
 21
1660.6207
  0
LINE
  8
0-d
  6
CONTINUOUS
 62
    7
 10
149.99989
 20
77.999978
 11
1110.0002
 21
77.999978
  0
LINE
  8
0-d
  6
CONTINUOUS
 62
    7
 10
149.99989
 20
17.999985
 11
149.99989
 21
125.99996
  0
LINE
  8
0-d
  6
CONTINUOUS
 62
    7
 10
149.99989
 20
17.999985
 11
1110.0002
 21
17.999985
  0
LINE
  8
0-d
  6
CONTINUOUS
 62
    7
 10
1110.0002
 20
125.99996
 11
1110.0002
 21
17.999985
  0
LINE
  8
0-d
  6
CONTINUOUS
 62
    7
 10
149.99989
 20
125.99996
 11
1110.0002
 21
125.99996
  0
LINE
  8
0-d
  6
CONTINUOUS
 62
    7
 10
629.99999
 20
125.99996
 11
629.99999
 21
17.999985
  0
LINE
  8
0-d
  6
CONTINUOUS
 62
    7
 10
390.00009
 20
17.999985
 11
390.00009
 21
77.999978
  0
LINE
  8
0-d
  6
CONTINUOUS
 62
    7
 10
629.99999
 20
77.999978
 11
629.99999
 21
125.99998
  0
LINE
  8
0-d
  6
CONTINUOUS
 62
    7
 10
509.99989
 20
17.999985
 11
509.99989
 21
77.999978
  0
LINE
  8
0-d
  6
CONTINUOUS
 62
    7
 10
171.00011
 20
17.999985
 11
171.00011
 21
77.999978
  0
LINE
  8
0-d
  6
CONTINUOUS
 62
    7
 10
411.00001
 20
17.999985
 11
411.00001
 21
77.999978
  0
LINE
  8
0-d
  6
CONTINUOUS
 62
    7
 10
530.99996
 20
17.999985
 11
530.99996
 21
77.999978
  0
LINE
  8
0-d
  6
CONTINUOUS
 62
    7
 10
609.00007
 20
77.999978
 11
609.00007
 21
125.99998
  0
LINE
  8
0-d
  6
CONTINUOUS
 62
    7
 10
930.00024
 20
77.999978
 11
930.00024
 21
125.99998
  0
LINE
  8
0-d
  6
CONTINUOUS
 62
    7
 10
951.00016
 20
77.999978
 11
951.00016
 21
125.99998
  0
LINE
  8
0-8
  6
CONTINUOUS
 62
    7
 10
210.00024
 20
1021.3511
 11
210.00024
 21
1451.3504
  0
LINE
  8
0-8
  6
CONTINUOUS
 62
    7
 10
390.00009
 20
1508.6155
 11
870.00078
 21
1508.6155
  0
LINE
  8
0-8
  6
CONTINUOUS
 62
    7
 10
472.49999
 20
897.47484
 11
787.49999
 21
897.47484
  0
LINE
  8
0-2
  6
CONTINUOUS
 62
    3
 10
390.00009
 20
1156.3514
 11
390.00009
 21
1121.3508
  0
LINE
  8
0-2
  6
CONTINUOUS
 62
    3
 10
472.49999
 20
1066.3512
 11
787.50088
 21
1066.3512
  0
LINE
  8
0-2
  6
CONTINUOUS
 62
    3
 10
472.49999
 20
1076.351
 11
787.50088
 21
1076.351
  0
LINE
  8
0-2
  6
CONTINUOUS
 62
    3
 10
472.49999
 20
1031.3511
 11
787.50088
 21
1031.3511
  0
LINE
  8
0-2
  6
CONTINUOUS
 62
    3
 10
472.49999
 20
1021.3514
 11
787.50088
 21
1021.3514
  0
LINE
  8
0-2
  6
CONTINUOUS
 62
    3
 10
472.49999
 20
1066.3512
 11
472.49999
 21
1031.3508
  0
LINE
  8
0-2
  6
CONTINUOUS
 62
    3
 10
787.49999
 20
1066.3512
 11
787.49999
 21
1031.3508
  0
LINE
  8
0-2
  6
CONTINUOUS
 62
    3
 10
472.49999
 20
1111.3514
 11
472.49999
 21
1076.351
  0
LINE
  8
0-8
  6
CONTINUOUS
 62
    7
 10
472.49999
 20
979.78508
 11
472.49999
 21
897.47484
  0
LINE
  8
0-8
  6
CONTINUOUS
 62
    7
 10
787.49999
 20
979.78508
 11
787.49999
 21
897.47484
  0
LINE
  8
0-2
  6
CONTINUOUS
 62
    3
 10
787.49999
 20
1066.3512
 11
787.49999
 21
1031.3508
  0
LINE
  8
0-2
  6
CONTINUOUS
 62
    3
 10
870.00004
 20
1156.3514
 11
870.00004
 21
1121.3508
  0
LINE
  8
0-2
  6
CONTINUOUS
 62
    3
 10
390.00009
 20
1381.3517
 11
390.00009
 21
1346.3513
  0
LINE
  8
0-2
  6
CONTINUOUS
 62
    3
 10
870.00004
 20
1381.3517
 11
870.00004
 21
1346.3513
  0
LINE
  8
0-2
  6
CONTINUOUS
 62
    3
 10
629.99999
 20
1451.3513
 11
526.07705
 21
1391.3514
  0
LINE
  8
0-8
  6
CONTINUOUS
 62
    7
 10
298.63192
 20
1021.3511
 11
210.00024
 21
1021.3511
  0
LINE
  8
0-8
  6
CONTINUOUS
 62
    7
 10
341.13105
 20
1451.3504
 11
210.00024
 21
1451.3504
  0
LINE
  8
0-8
  6
CONTINUOUS
 62
    7
 10
390.00009
 20
1425.9501
 11
390.00009
 21
1508.6155
  0
LINE
  8
0-8
  6
CONTINUOUS
 62
    7
 10
870.00078
 20
1425.9501
 11
870.00078
 21
1508.6155
  0
LINE
  8
0-2
  6
CONTINUOUS
 62
    3
 10
390.00009
 20
1336.3518
 11
390.00009
 21
1166.351
  0
LINE
  8
0-2
  6
CONTINUOUS
 62
    3
 10
870.00078
 20
1336.3518
 11
870.00078
 21
1166.351
  0
LINE
  8
0-2
  6
CONTINUOUS
 62
    3
 10
390.00009
 20
1391.3514
 11
629.99999
 21
1391.3514
  0
LINE
  8
0-2
  6
CONTINUOUS
 62
    3
 10
390.00009
 20
1381.3517
 11
629.99999
 21
1381.3517
  0
LINE
  8
0-2
  6
CONTINUOUS
 62
    3
 10
390.00009
 20
1346.3516
 11
629.99999
 21
1346.3516
  0
LINE
  8
0-2
  6
CONTINUOUS
 62
    3
 10
390.00009
 20
1336.3518
 11
629.99999
 21
1336.3518
  0
LINE
  8
0-2
  6
CONTINUOUS
 62
    3
 10
390.00009
 20
1111.3514
 11
629.99999
 21
1111.3514
  0
LINE
  8
0-2
  6
CONTINUOUS
 62
    3
 10
390.00009
 20
1121.3511
 11
629.99999
 21
1121.3511
  0
LINE
  8
0-2
  6
CONTINUOUS
 62
    3
 10
390.00009
 20
1156.3514
 11
629.99999
 21
1156.3514
  0
LINE
  8
0-2
  6
CONTINUOUS
 62
    3
 10
390.00009
 20
1166.351
 11
629.99999
 21
1166.351
  0
LINE
  8
0-2
  6
CONTINUOUS
 62
    3
 10
787.49999
 20
1111.3514
 11
870.00078
 21
1111.3514
  0
LINE
  8
0-2
  6
CONTINUOUS
 62
    3
 10
787.49999
 20
1121.3511
 11
870.00078
 21
1121.3511
  0
LINE
  8
0-2
  6
CONTINUOUS
 62
    3
 10
787.49999
 20
1156.3514
 11
870.00078
 21
1156.3514
  0
LINE
  8
0-2
  6
CONTINUOUS
 62
    3
 10
787.49999
 20
1166.351
 11
870.00078
 21
1166.351
  0
LINE
  8
0-2
  6
CONTINUOUS
 62
    3
 10
629.99999
 20
1296.3516
 11
787.50147
 21
1296.3516
  0
LINE
  8
0-2
  6
CONTINUOUS
 62
    3
 10
787.49999
 20
1296.3516
 11
787.49999
 21
1076.351
  0
LINE
  8
0-1
  6
CENTER2
 62
    7
 10
629.99999
 20
1451.3513
 11
629.99999
 21
1021.3514
  0
LINE
  8
0-2
  6
CONTINUOUS
 62
    3
 10
787.50088
 20
1306.3511
 11
629.99999
 21
1306.3511
  0
LINE
  8
0-2
  6
CONTINUOUS
 62
    3
 10
629.99999
 20
1451.3513
 11
834.38155
 21
1333.3518
  0
LINE
  8
0-2
  6
CONTINUOUS
 62
    3
 10
629.99999
 20
1333.3518
 11
834.38155
 21
1333.3518
  0
LINE
  8
0-2
  6
CONTINUOUS
 62
    3
 10
811.86521
 20
1346.3516
 11
870.00078
 21
1346.3516
  0
LINE
  8
0-2
  6
CONTINUOUS
 62
    3
 10
829.18538
 20
1336.3518
 11
870.00078
 21
1336.3518
  0
LINE
  8
0-2
  6
CONTINUOUS
 62
    3
 10
733.92301
 20
1391.3514
 11
870.00078
 21
1391.3514
  0
LINE
  8
0-2
  6
CONTINUOUS
 62
    3
 10
751.24318
 20
1381.3517
 11
870.00078
 21
1381.3517
  0
LINE
  8
0-1
  6
CENTER2
 62
    7
 10
629.99999
 20
1482.5723
 11
629.99999
 21
963.24323
  0
ARC
  8
0-2
  6
CONTINUOUS
 62
    3
 10
472.49999
 20
1026.351
 40
4.9997686
 50
90
 51
270
  0
ARC
  8
0-2
  6
CONTINUOUS
 62
    3
 10
472.49999
 20
1071.351
 40
4.9997686
 50
90
 51
270
  0
ARC
  8
0-2
  6
CONTINUOUS
 62
    3
 10
787.49999
 20
1026.351
 40
4.9997686
 50
270
 51
90
  0
ARC
  8
0-2
  6
CONTINUOUS
 62
    3
 10
787.49999
 20
1071.351
 40
4.9997686
 50
270
 51
90
  0
ARC
  8
0-2
  6
CONTINUOUS
 62
    3
 10
390.00009
 20
1161.3513
 40
4.9997686
 50
90
 51
270
  0
ARC
  8
0-2
  6
CONTINUOUS
 62
    3
 10
390.00009
 20
1116.3512
 40
4.9997686
 50
90
 51
270
  0
ARC
  8
0-2
  6
CONTINUOUS
 62
    3
 10
870.00004
 20
1161.3513
 40
4.9997686
 50
270
 51
90
  0
ARC
  8
0-2
  6
CONTINUOUS
 62
    3
 10
870.00004
 20
1116.3512
 40
4.9997686
 50
270
 51
90
  0
ARC
  8
0-2
  6
CONTINUOUS
 62
    3
 10
390.00009
 20
1386.3518
 40
4.9997686
 50
90
 51
270
  0
ARC
  8
0-2
  6
CONTINUOUS
 62
    3
 10
390.00009
 20
1341.3515
 40
4.9997686
 50
90
 51
270
  0
ARC
  8
0-2
  6
CONTINUOUS
 62
    3
 10
870.00004
 20
1386.3518
 40
4.9997686
 50
270
 51
90
  0
ARC
  8
0-2
  6
CONTINUOUS
 62
    3
 10
870.00004
 20
1341.3515
 40
4.9997686
 50
270
 51
90
  0
ARC
  8
0-2
  6
CONTINUOUS
 62
    3
 10
787.50088
 20
1301.3514
 40
4.9997686
 50
270
 51
90
  0
TEXT
  8
0-d
 10
152.9999
 20
58.499969
 40
15
 41
1
 50
0
  1
図
  0
TEXT
  8
0-d
 10
152.9999
 20
22.499981
 40
15
 41
1
 50
0
  1
番
  0
TEXT
  8
0-d
 10
393.0001
 20
58.499969
 40
15
 41
1
 50
0
  1
承
  0
TEXT
  8
0-d
 10
393.0001
 20
22.499981
 40
15
 41
1
 50
0
  1
認
  0
TEXT
  8
0-d
 10
612.00008
 20
106.49999
 40
15
 41
1
 50
0
  1
尺
  0
TEXT
  8
0-d
 10
612.00008
 20
82.499993
 40
15
 41
1
 50
0
  1
度
  0
TEXT
  8
0-d
 10
513.00005
 20
58.499969
 40
15
 41
1
 50
0
  1
製
  0
TEXT
  8
0-d
 10
513.00005
 20
22.499981
 40
15
 41
1
 50
0
  1
図
  0
TEXT
  8
0-d
 10
933.0001
 20
106.49999
 40
15
 41
1
 50
0
  1
日
  0
TEXT
  8
0-d
 10
933.0001
 20
82.499993
 40
15
 41
1
 50
0
  1
付
  0
TEXT
  8
0-d
 10
666.85571
 20
62.089344
 40
12
 41
1
 50
0
  1
株式
  0
TEXT
  8
0-d
 10
666.85571
 20
49.11109
 40
12
 41
1
 50
0
  1
会社
  0
TEXT
  8
0-d
 10
704.53465
 20
49.948393
 40
24
 41
1
 50
0
  1
スズキベンチレーター
  0
TEXT
  8
0-d
 10
742.75074
 20
20.414573
 40
12
 41
1
 50
0
  1
TEL(054)296-7000  FAX(054)296-7001
  0
TEXT
  8
0-8
 10
606.45317
 20
903.59942
 40
18
 41
1
 50
0
  1
315φ
  0
TEXT
  8
0-8
 10
197.18513
 20
1241.1128
 40
18
 41
1
 50
90
  1
430
  0
TEXT
  8
0-8
 10
584.0715
 20
1513.4398
 40
18
 41
1
 50
0
  1
480φ
  0
TEXT
  8
0-d
 10
650.60945
 20
90.060442
 40
24
 41
1
 50
0
  1
１／６
  0
TEXT
  8
0-d
 10
182.15458
 20
51.341207
 40
18
 41
1
 50
0
  1
30-A06a
  0
TEXT
  8
0-2
 10
153.00001
 20
1663.6207
 40
30
 41
1
 50
0
  1
ＤＳ－３００　　自然換気　直付型断面
  0
TEXT
  8
0-2
 10
163.67271
 20
90.382442
 40
18
 41
1
 50
0
  1
ＤＳ－３００　　自然換気　直付型断面
  0
TEXT
  8
0-d
 10
741.40759
 20
35.187631
 40
12
 41
1
 50
0
  1
〒421-2114　静岡市葵区安倍口新田１５２番地
  0
POINT
  8
0-8
 62
    2
 10
210.00024
 20
1021.3511
  0
POINT
  8
0-8
 62
    2
 10
210.00024
 20
1451.3504
  0
POINT
  8
0-8
 62
    2
 10
390.00009
 20
1508.6155
  0
POINT
  8
0-8
 62
    2
 10
870.00078
 20
1508.6155
  0
POINT
  8
0-8
 62
    2
 10
472.49999
 20
897.47484
  0
POINT
  8
0-8
 62
    2
 10
787.49999
 20
897.47484
  0
ENDSEC
  0
EOF
