  0
SECTION
  2
HEADER
  9
$EXTMIN
 10
0
 20
0
  9
$EXTMAX
 10
2520
 20
1782
  0
ENDSEC
  0
SECTION
  2
TABLES
  0
TABLE
  2
LTYPE
 70
     9
  0
LTYPE
  2
CONTINUOUS
 70
    64
  3
実線
 72
    65
 73
     0
 40
0.0
  0
LTYPE
  2
DASHED1
 70
    64
  3
--  --  --  --  --  --  --  --  
 72
    65
 73
     2
 40
2.5
 49
1.25
 49
-1.25
  0
LTYPE
  2
DASHED2
 70
    64
  3
----    ----    ----    ----    
 72
    65
 73
     2
 40
5.0
 49
2.5
 49
-2.5
  0
LTYPE
  2
DASHED3
 70
    64
  3
------  ------  ------  ------  
 72
    65
 73
     2
 40
5.0
 49
3.75
 49
-1.25
  0
LTYPE
  2
CENTER1
 70
    64
  3
----- - ----- - ----- - ----- - 
 72
    65
 73
     4
 40
10.0
 49
6.25
 49
-1.25
 49
1.25
 49
-1.25
  0
LTYPE
  2
CENTER2
 70
    64
  3
----------  --  ----------  --  
 72
    65
 73
     4
 40
20.0
 49
12.5
 49
-2.5
 49
2.5
 49
-2.5
  0
LTYPE
  2
PHANTOM1
 70
    64
  3
--- - - --- - - --- - - --- - - 
 72
    65
 73
     6
 40
10.0
 49
3.25
 49
-1.25
 49
1.25
 49
-1.25
 49
1.25
 49
-1.25
  0
LTYPE
  2
PHANTOM2
 70
    64
  3
--------  -  -  --------  -  -  
 72
    65
 73
     6
 40
20.0
 49
10.0
 49
-2.5
 49
1.25
 49
-2.5
 49
1.25
 49
-2.5
  0
LTYPE
  2
DOT
 70
    64
  3
-   -   -   -   -   -   -   -   
 72
    65
 73
     2
 40
2.5
 49
0.625
 49
-1.875
  0
ENDTAB
  0
TABLE
  2
STYLE
 70
    1
  0
STYLE
  2
STANDARD
 70
    64
 40
0.0
 41
1.0
 42
0.0
 50
0.0
 71
     0
  3
TXT
  4
BIGFONT
  0
ENDTAB
  0
TABLE
  2
LAYER
 70
    5
  0
LAYER
  2
0-1
 70
   64
 62
    7
  6
CONTINUOUS
  0
LAYER
  2
0-2
 70
   64
 62
    7
  6
CONTINUOUS
  0
LAYER
  2
0-8
 70
   64
 62
    7
  6
CONTINUOUS
  0
LAYER
  2
0-d
 70
   64
 62
    7
  6
CONTINUOUS
  0
LAYER
  2
ADD_LINE
 70
   64
 62
    7
  6
CONTINUOUS
  0
ENDTAB
  0
ENDSEC
  0
SECTION
  2
ENTITIES
  0
LINE
  8
0-d
  6
CONTINUOUS
 62
    7
 10
150.00001
 20
1654.6207
 11
1110
 21
1654.6207
  0
LINE
  8
0-d
  6
CONTINUOUS
 62
    7
 10
150.00001
 20
1660.6207
 11
1110
 21
1660.6207
  0
LINE
  8
0-d
  6
CONTINUOUS
 62
    7
 10
149.99989
 20
77.999978
 11
1110.0002
 21
77.999978
  0
LINE
  8
0-d
  6
CONTINUOUS
 62
    7
 10
149.99989
 20
17.999985
 11
149.99989
 21
125.99996
  0
LINE
  8
0-d
  6
CONTINUOUS
 62
    7
 10
149.99989
 20
17.999985
 11
1110.0002
 21
17.999985
  0
LINE
  8
0-d
  6
CONTINUOUS
 62
    7
 10
1110.0002
 20
125.99996
 11
1110.0002
 21
17.999985
  0
LINE
  8
0-d
  6
CONTINUOUS
 62
    7
 10
149.99989
 20
125.99996
 11
1110.0002
 21
125.99996
  0
LINE
  8
0-d
  6
CONTINUOUS
 62
    7
 10
629.99999
 20
125.99996
 11
629.99999
 21
17.999985
  0
LINE
  8
0-d
  6
CONTINUOUS
 62
    7
 10
390.00009
 20
17.999985
 11
390.00009
 21
77.999978
  0
LINE
  8
0-d
  6
CONTINUOUS
 62
    7
 10
629.99999
 20
77.999978
 11
629.99999
 21
125.99998
  0
LINE
  8
0-d
  6
CONTINUOUS
 62
    7
 10
509.99989
 20
17.999985
 11
509.99989
 21
77.999978
  0
LINE
  8
0-d
  6
CONTINUOUS
 62
    7
 10
171.00011
 20
17.999985
 11
171.00011
 21
77.999978
  0
LINE
  8
0-d
  6
CONTINUOUS
 62
    7
 10
411.00001
 20
17.999985
 11
411.00001
 21
77.999978
  0
LINE
  8
0-d
  6
CONTINUOUS
 62
    7
 10
530.99996
 20
17.999985
 11
530.99996
 21
77.999978
  0
LINE
  8
0-d
  6
CONTINUOUS
 62
    7
 10
609.00007
 20
77.999978
 11
609.00007
 21
125.99998
  0
LINE
  8
0-d
  6
CONTINUOUS
 62
    7
 10
930.00024
 20
77.999978
 11
930.00024
 21
125.99998
  0
LINE
  8
0-d
  6
CONTINUOUS
 62
    7
 10
951.00016
 20
77.999978
 11
951.00016
 21
125.99998
  0
LINE
  8
0-8
  6
CONTINUOUS
 62
    7
 10
195.34047
 20
1022.9566
 11
195.34047
 21
1502.9559
  0
LINE
  8
0-8
  6
CONTINUOUS
 62
    7
 10
375.34017
 20
1560.221
 11
855.34101
 21
1560.221
  0
LINE
  8
0-2
  6
CONTINUOUS
 62
    3
 10
375.34017
 20
1207.9569
 11
855.34101
 21
1207.9569
  0
LINE
  8
0-2
  6
CONTINUOUS
 62
    3
 10
375.34017
 20
1217.9565
 11
855.34101
 21
1217.9565
  0
LINE
  8
0-2
  6
CONTINUOUS
 62
    3
 10
375.34017
 20
1172.9567
 11
855.34101
 21
1172.9567
  0
LINE
  8
0-2
  6
CONTINUOUS
 62
    3
 10
375.34017
 20
1207.9569
 11
375.34017
 21
1172.9565
  0
LINE
  8
0-2
  6
CONTINUOUS
 62
    3
 10
855.34027
 20
1207.9569
 11
855.34027
 21
1172.9565
  0
LINE
  8
0-2
  6
CONTINUOUS
 62
    3
 10
375.34017
 20
1162.9569
 11
855.34101
 21
1162.9569
  0
LINE
  8
0-2
  6
CONTINUOUS
 62
    3
 10
375.34017
 20
1432.9571
 11
855.34101
 21
1432.9571
  0
LINE
  8
0-2
  6
CONTINUOUS
 62
    3
 10
375.34017
 20
1442.9569
 11
855.34101
 21
1442.9569
  0
LINE
  8
0-2
  6
CONTINUOUS
 62
    3
 10
375.34017
 20
1397.957
 11
855.34101
 21
1397.957
  0
LINE
  8
0-2
  6
CONTINUOUS
 62
    3
 10
375.34017
 20
1432.9571
 11
375.34017
 21
1397.9567
  0
LINE
  8
0-2
  6
CONTINUOUS
 62
    3
 10
855.34027
 20
1432.9571
 11
855.34027
 21
1397.9567
  0
LINE
  8
0-2
  6
CONTINUOUS
 62
    3
 10
375.34017
 20
1387.9573
 11
855.34101
 21
1387.9573
  0
LINE
  8
0-2
  6
CONTINUOUS
 62
    3
 10
615.34022
 20
1502.9568
 11
511.41713
 21
1442.9569
  0
LINE
  8
0-2
  6
CONTINUOUS
 62
    3
 10
615.34022
 20
1502.9568
 11
719.26331
 21
1442.9569
  0
LINE
  8
0-8
  6
CONTINUOUS
 62
    7
 10
326.47135
 20
1502.9559
 11
195.34047
 21
1502.9559
  0
LINE
  8
0-8
  6
CONTINUOUS
 62
    7
 10
375.34017
 20
1477.5555
 11
375.34017
 21
1560.221
  0
LINE
  8
0-8
  6
CONTINUOUS
 62
    7
 10
855.34101
 20
1477.5555
 11
855.34101
 21
1560.221
  0
LINE
  8
0-2
  6
CONTINUOUS
 62
    3
 10
375.34017
 20
1387.9573
 11
375.34017
 21
1217.9565
  0
LINE
  8
0-2
  6
CONTINUOUS
 62
    3
 10
855.34101
 20
1387.9573
 11
855.34101
 21
1217.9565
  0
LINE
  8
0-2
  6
CONTINUOUS
 62
    3
 10
355.34016
 20
1022.956
 11
355.34016
 21
1082.9559
  0
LINE
  8
0-2
  6
CONTINUOUS
 62
    3
 10
875.34028
 20
1082.9559
 11
355.34016
 21
1082.9559
  0
LINE
  8
0-2
  6
CONTINUOUS
 62
    3
 10
875.34028
 20
1022.956
 11
875.34028
 21
1082.9559
  0
LINE
  8
0-2
  6
CONTINUOUS
 62
    3
 10
875.34028
 20
1022.956
 11
355.34016
 21
1022.956
  0
LINE
  8
0-8
  6
CONTINUOUS
 62
    7
 10
355.34016
 20
911.58745
 11
875.34028
 21
911.58745
  0
LINE
  8
0-8
  6
CONTINUOUS
 62
    7
 10
355.34016
 20
1001.3906
 11
355.34016
 21
911.58745
  0
LINE
  8
0-8
  6
CONTINUOUS
 62
    7
 10
875.34028
 20
1001.3906
 11
875.34028
 21
911.58745
  0
LINE
  8
0-8
  6
CONTINUOUS
 62
    7
 10
326.47135
 20
1022.9566
 11
195.34047
 21
1022.9566
  0
LINE
  8
0-8
  6
CONTINUOUS
 62
    7
 10
243.17806
 20
1022.956
 11
243.17806
 21
1082.9559
  0
LINE
  8
0-8
  6
CONTINUOUS
 62
    7
 10
326.47135
 20
1022.956
 11
243.17806
 21
1022.956
  0
LINE
  8
0-8
  6
CONTINUOUS
 62
    7
 10
326.47135
 20
1082.9559
 11
243.17806
 21
1082.9559
  0
LINE
  8
0-2
  6
CONTINUOUS
 62
    3
 10
457.84022
 20
1162.9569
 11
457.84022
 21
1135.6622
  0
LINE
  8
0-2
  6
CONTINUOUS
 62
    3
 10
772.84022
 20
1162.9568
 11
772.84022
 21
1135.6622
  0
LINE
  8
0-1
  6
CENTER2
 62
    7
 10
615.34022
 20
1502.9568
 11
615.34022
 21
992.43242
  0
LINE
  8
0-2
  6
CONTINUOUS
 62
    3
 10
355.34016
 20
1082.9559
 11
477.84024
 21
1145.9463
  0
LINE
  8
0-2
  6
CONTINUOUS
 62
    3
 10
477.84024
 20
1145.9463
 11
477.84024
 21
1082.9564
  0
LINE
  8
0-2
  6
CONTINUOUS
 62
    3
 10
752.8402
 20
1145.9463
 11
752.8402
 21
1082.9564
  0
LINE
  8
0-2
  6
CONTINUOUS
 62
    3
 10
875.34028
 20
1082.9559
 11
752.8402
 21
1145.9463
  0
LINE
  8
0-2
  6
CONTINUOUS
 62
    3
 10
477.84024
 20
1117.9567
 11
752.8402
 21
1117.9567
  0
LINE
  8
0-2
  6
CONTINUOUS
 62
    3
 10
477.84024
 20
1127.9565
 11
752.8402
 21
1127.9565
  0
ARC
  8
0-2
  6
CONTINUOUS
 62
    3
 10
375.34017
 20
1212.9569
 40
4.9997686
 50
90
 51
270
  0
ARC
  8
0-2
  6
CONTINUOUS
 62
    3
 10
375.34017
 20
1167.9567
 40
4.9997686
 50
90
 51
270
  0
ARC
  8
0-2
  6
CONTINUOUS
 62
    3
 10
855.34027
 20
1212.9569
 40
4.9997686
 50
270
 51
90
  0
ARC
  8
0-2
  6
CONTINUOUS
 62
    3
 10
855.34027
 20
1167.9567
 40
4.9997686
 50
270
 51
90
  0
ARC
  8
0-2
  6
CONTINUOUS
 62
    3
 10
375.34017
 20
1437.9572
 40
4.9997686
 50
90
 51
270
  0
ARC
  8
0-2
  6
CONTINUOUS
 62
    3
 10
375.34017
 20
1392.9569
 40
4.9997686
 50
90
 51
270
  0
ARC
  8
0-2
  6
CONTINUOUS
 62
    3
 10
855.34027
 20
1437.9572
 40
4.9997686
 50
270
 51
90
  0
ARC
  8
0-2
  6
CONTINUOUS
 62
    3
 10
855.34027
 20
1392.9569
 40
4.9997686
 50
270
 51
90
  0
TEXT
  8
0-d
 10
152.9999
 20
58.499969
 40
15
 41
1
 50
0
  1
図
  0
TEXT
  8
0-d
 10
152.9999
 20
22.499981
 40
15
 41
1
 50
0
  1
番
  0
TEXT
  8
0-d
 10
393.0001
 20
58.499969
 40
15
 41
1
 50
0
  1
承
  0
TEXT
  8
0-d
 10
393.0001
 20
22.499981
 40
15
 41
1
 50
0
  1
認
  0
TEXT
  8
0-d
 10
612.00008
 20
106.49999
 40
15
 41
1
 50
0
  1
尺
  0
TEXT
  8
0-d
 10
612.00008
 20
82.499993
 40
15
 41
1
 50
0
  1
度
  0
TEXT
  8
0-d
 10
513.00005
 20
58.499969
 40
15
 41
1
 50
0
  1
製
  0
TEXT
  8
0-d
 10
513.00005
 20
22.499981
 40
15
 41
1
 50
0
  1
図
  0
TEXT
  8
0-d
 10
933.0001
 20
106.49999
 40
15
 41
1
 50
0
  1
日
  0
TEXT
  8
0-d
 10
933.0001
 20
82.499993
 40
15
 41
1
 50
0
  1
付
  0
TEXT
  8
0-d
 10
666.85571
 20
62.089344
 40
12
 41
1
 50
0
  1
株式
  0
TEXT
  8
0-d
 10
666.85571
 20
49.11109
 40
12
 41
1
 50
0
  1
会社
  0
TEXT
  8
0-d
 10
704.53465
 20
49.948393
 40
24
 41
1
 50
0
  1
スズキベンチレーター
  0
TEXT
  8
0-d
 10
742.75074
 20
20.414573
 40
12
 41
1
 50
0
  1
TEL(054)296-7000  FAX(054)296-7001
  0
TEXT
  8
0-8
 10
589.21607
 20
1568.1638
 40
18
 41
1
 50
0
  1
480φ
  0
TEXT
  8
0-8
 10
182.52536
 20
1292.7183
 40
18
 41
1
 50
90
  1
480
  0
TEXT
  8
0-8
 10
237.17804
 20
1044.7059
 40
18
 41
1
 50
90
  1
60
  0
TEXT
  8
0-d
 10
650.60945
 20
90.060442
 40
24
 41
1
 50
0
  1
１／６
  0
TEXT
  8
0-8
 10
584.02265
 20
917.77305
 40
18
 41
1
 50
0
  1
520x520
  0
TEXT
  8
0-d
 10
182.15458
 20
51.341207
 40
18
 41
1
 50
0
  1
30-A05b
  0
TEXT
  8
0-2
 10
153.00001
 20
1663.6207
 40
30
 41
1
 50
0
  1
ＤＳ－３００　　自然換気　架台型立面
  0
TEXT
  8
0-2
 10
158.45026
 20
92.060845
 40
18
 41
1
 50
0
  1
ＤＳ－３００　　自然換気　架台型立面
  0
TEXT
  8
0-d
 10
741.40759
 20
35.187631
 40
12
 41
1
 50
0
  1
〒421-2114　静岡市葵区安倍口新田１５２番地
  0
POINT
  8
0-8
 62
    2
 10
195.34047
 20
1022.9566
  0
POINT
  8
0-8
 62
    2
 10
195.34047
 20
1502.9559
  0
POINT
  8
0-8
 62
    2
 10
375.34017
 20
1560.221
  0
POINT
  8
0-8
 62
    2
 10
855.34101
 20
1560.221
  0
POINT
  8
0-8
 62
    2
 10
355.34016
 20
911.58745
  0
POINT
  8
0-8
 62
    2
 10
875.34028
 20
911.58745
  0
POINT
  8
0-8
 62
    2
 10
243.17806
 20
1022.956
  0
POINT
  8
0-8
 62
    2
 10
243.17806
 20
1082.9559
  0
ENDSEC
  0
EOF
