  0
SECTION
  2
HEADER
  9
$EXTMIN
 10
0
 20
0
  9
$EXTMAX
 10
2520
 20
1782
  0
ENDSEC
  0
SECTION
  2
TABLES
  0
TABLE
  2
LTYPE
 70
     9
  0
LTYPE
  2
CONTINUOUS
 70
    64
  3
実線
 72
    65
 73
     0
 40
0.0
  0
LTYPE
  2
DASHED1
 70
    64
  3
--  --  --  --  --  --  --  --  
 72
    65
 73
     2
 40
2.5
 49
1.25
 49
-1.25
  0
LTYPE
  2
DASHED2
 70
    64
  3
----    ----    ----    ----    
 72
    65
 73
     2
 40
5.0
 49
2.5
 49
-2.5
  0
LTYPE
  2
DASHED3
 70
    64
  3
------  ------  ------  ------  
 72
    65
 73
     2
 40
5.0
 49
3.75
 49
-1.25
  0
LTYPE
  2
CENTER1
 70
    64
  3
----- - ----- - ----- - ----- - 
 72
    65
 73
     4
 40
10.0
 49
6.25
 49
-1.25
 49
1.25
 49
-1.25
  0
LTYPE
  2
CENTER2
 70
    64
  3
----------  --  ----------  --  
 72
    65
 73
     4
 40
20.0
 49
12.5
 49
-2.5
 49
2.5
 49
-2.5
  0
LTYPE
  2
PHANTOM1
 70
    64
  3
--- - - --- - - --- - - --- - - 
 72
    65
 73
     6
 40
10.0
 49
3.25
 49
-1.25
 49
1.25
 49
-1.25
 49
1.25
 49
-1.25
  0
LTYPE
  2
PHANTOM2
 70
    64
  3
--------  -  -  --------  -  -  
 72
    65
 73
     6
 40
20.0
 49
10.0
 49
-2.5
 49
1.25
 49
-2.5
 49
1.25
 49
-2.5
  0
LTYPE
  2
DOT
 70
    64
  3
-   -   -   -   -   -   -   -   
 72
    65
 73
     2
 40
2.5
 49
0.625
 49
-1.875
  0
ENDTAB
  0
TABLE
  2
STYLE
 70
    1
  0
STYLE
  2
STANDARD
 70
    64
 40
0.0
 41
1.0
 42
0.0
 50
0.0
 71
     0
  3
TXT
  4
BIGFONT
  0
ENDTAB
  0
TABLE
  2
LAYER
 70
    5
  0
LAYER
  2
1-1
 70
   64
 62
    7
  6
CONTINUOUS
  0
LAYER
  2
1-2
 70
   64
 62
    7
  6
CONTINUOUS
  0
LAYER
  2
1-8
 70
   64
 62
    7
  6
CONTINUOUS
  0
LAYER
  2
1-d
 70
   64
 62
    7
  6
CONTINUOUS
  0
LAYER
  2
ADD_LINE
 70
   64
 62
    7
  6
CONTINUOUS
  0
ENDTAB
  0
ENDSEC
  0
SECTION
  2
ENTITIES
  0
LINE
  8
1-d
  6
CONTINUOUS
 62
    7
 10
150.00001
 20
1654.6207
 11
1110
 21
1654.6207
  0
LINE
  8
1-d
  6
CONTINUOUS
 62
    7
 10
150.00001
 20
1660.6207
 11
1110
 21
1660.6207
  0
LINE
  8
1-d
  6
CONTINUOUS
 62
    7
 10
150.00004
 20
89.999999
 11
1110.0003
 21
89.999999
  0
LINE
  8
1-d
  6
CONTINUOUS
 62
    7
 10
150.00004
 20
30.000005
 11
150.00004
 21
137.99999
  0
LINE
  8
1-d
  6
CONTINUOUS
 62
    7
 10
150.00004
 20
30.000005
 11
1110.0003
 21
30.000005
  0
LINE
  8
1-d
  6
CONTINUOUS
 62
    7
 10
1110.0003
 20
137.99999
 11
1110.0003
 21
30.000005
  0
LINE
  8
1-d
  6
CONTINUOUS
 62
    7
 10
150.00004
 20
137.99999
 11
1110.0003
 21
137.99999
  0
LINE
  8
1-d
  6
CONTINUOUS
 62
    7
 10
630.00014
 20
137.99999
 11
630.00014
 21
30.000005
  0
LINE
  8
1-d
  6
CONTINUOUS
 62
    7
 10
390.00024
 20
30.000005
 11
390.00024
 21
89.999999
  0
LINE
  8
1-d
  6
CONTINUOUS
 62
    7
 10
630.00014
 20
89.999999
 11
630.00014
 21
138
  0
LINE
  8
1-d
  6
CONTINUOUS
 62
    7
 10
510.00004
 20
30.000005
 11
510.00004
 21
89.999999
  0
LINE
  8
1-d
  6
CONTINUOUS
 62
    7
 10
171.00026
 20
30.000005
 11
171.00026
 21
89.999999
  0
LINE
  8
1-d
  6
CONTINUOUS
 62
    7
 10
411.00016
 20
30.000005
 11
411.00016
 21
89.999999
  0
LINE
  8
1-d
  6
CONTINUOUS
 62
    7
 10
531.00011
 20
30.000005
 11
531.00011
 21
89.999999
  0
LINE
  8
1-d
  6
CONTINUOUS
 62
    7
 10
609.00022
 20
89.999999
 11
609.00022
 21
138
  0
LINE
  8
1-d
  6
CONTINUOUS
 62
    7
 10
930.00038
 20
89.999999
 11
930.00038
 21
138
  0
LINE
  8
1-d
  6
CONTINUOUS
 62
    7
 10
951.0003
 20
89.999999
 11
951.0003
 21
138
  0
LINE
  8
1-8
  6
CONTINUOUS
 62
    7
 10
271.96302
 20
1258.0521
 11
271.96302
 21
1516.0516
  0
LINE
  8
1-8
  6
CONTINUOUS
 62
    7
 10
487.96288
 20
1574.4107
 11
775.96338
 21
1574.4107
  0
LINE
  8
1-8
  6
CONTINUOUS
 62
    7
 10
271.96302
 20
866.55248
 11
271.96302
 21
1007.5522
  0
LINE
  8
1-8
  6
CONTINUOUS
 62
    7
 10
462.46339
 20
866.55248
 11
271.96302
 21
866.55248
  0
LINE
  8
1-8
  6
CONTINUOUS
 62
    7
 10
462.46339
 20
974.55239
 11
271.96302
 21
974.55239
  0
LINE
  8
1-8
  6
CONTINUOUS
 62
    7
 10
462.46339
 20
1007.5522
 11
271.96302
 21
1007.5522
  0
LINE
  8
1-2
  6
CONTINUOUS
 62
    3
 10
496.96291
 20
314.59424
 11
496.96291
 21
584.59424
  0
LINE
  8
1-2
  6
CONTINUOUS
 62
    3
 10
496.96291
 20
584.59424
 11
766.9629
 21
584.59424
  0
LINE
  8
1-2
  6
CONTINUOUS
 62
    3
 10
766.9629
 20
584.59424
 11
766.9629
 21
314.59424
  0
LINE
  8
1-2
  6
CONTINUOUS
 62
    3
 10
766.9629
 20
314.59424
 11
496.96291
 21
314.59424
  0
LINE
  8
1-8
  6
CONTINUOUS
 62
    7
 10
271.963
 20
203.59417
 11
271.963
 21
695.59416
  0
LINE
  8
1-8
  6
CONTINUOUS
 62
    7
 10
991.96298
 20
314.59424
 11
991.96298
 21
584.59424
  0
LINE
  8
1-8
  6
CONTINUOUS
 62
    7
 10
496.96313
 20
794.92905
 11
766.94249
 21
794.92905
  0
LINE
  8
1-8
  6
CONTINUOUS
 62
    7
 10
537.46289
 20
1156.7263
 11
726.46292
 21
1156.7263
  0
LINE
  8
1-2
  6
CONTINUOUS
 62
    3
 10
496.96291
 20
584.59424
 11
528.78273
 21
552.77442
  0
LINE
  8
1-2
  6
CONTINUOUS
 62
    3
 10
766.9629
 20
584.59424
 11
735.14308
 21
552.77442
  0
LINE
  8
1-2
  6
CONTINUOUS
 62
    3
 10
496.96291
 20
314.59424
 11
528.78273
 21
346.41399
  0
LINE
  8
1-2
  6
CONTINUOUS
 62
    3
 10
766.9629
 20
314.59424
 11
735.14308
 21
346.41399
  0
LINE
  8
1-8
  6
CONTINUOUS
 62
    7
 10
545.6071
 20
419.34624
 11
718.31871
 21
479.84168
  0
LINE
  8
1-2
  6
CONTINUOUS
 62
    3
 10
540.4629
 20
974.55239
 11
723.46284
 21
974.55239
  0
LINE
  8
1-2
  6
CONTINUOUS
 62
    3
 10
540.4629
 20
1007.5522
 11
723.46284
 21
1007.5522
  0
LINE
  8
1-2
  6
CONTINUOUS
 62
    3
 10
540.4629
 20
974.55239
 11
496.96313
 21
866.55248
  0
LINE
  8
1-2
  6
CONTINUOUS
 62
    3
 10
723.46284
 20
974.55239
 11
766.94249
 21
866.41063
  0
LINE
  8
1-8
  6
CONTINUOUS
 62
    7
 10
540.4629
 20
1083.0811
 11
723.46284
 21
1083.0811
  0
LINE
  8
1-2
  6
CONTINUOUS
 62
    3
 10
487.96288
 20
1339.0522
 11
775.96338
 21
1339.0522
  0
LINE
  8
1-2
  6
CONTINUOUS
 62
    3
 10
487.96288
 20
1345.0521
 11
775.96338
 21
1345.0521
  0
LINE
  8
1-2
  6
CONTINUOUS
 62
    3
 10
487.96288
 20
1318.0521
 11
775.96338
 21
1318.0521
  0
LINE
  8
1-2
  6
CONTINUOUS
 62
    3
 10
487.96288
 20
1339.0522
 11
487.96288
 21
1318.052
  0
LINE
  8
1-2
  6
CONTINUOUS
 62
    3
 10
537.46289
 20
1285.0522
 11
726.46336
 21
1285.0522
  0
LINE
  8
1-2
  6
CONTINUOUS
 62
    3
 10
537.46289
 20
1291.0521
 11
726.46336
 21
1291.0521
  0
LINE
  8
1-2
  6
CONTINUOUS
 62
    3
 10
537.46289
 20
1264.0521
 11
726.46336
 21
1264.0521
  0
LINE
  8
1-2
  6
CONTINUOUS
 62
    3
 10
537.46289
 20
1258.0522
 11
726.46336
 21
1258.0522
  0
LINE
  8
1-2
  6
CONTINUOUS
 62
    3
 10
537.46289
 20
1285.0522
 11
537.46289
 21
1264.052
  0
LINE
  8
1-2
  6
CONTINUOUS
 62
    3
 10
726.46292
 20
1285.0522
 11
726.46292
 21
1264.052
  0
LINE
  8
1-2
  6
CONTINUOUS
 62
    3
 10
537.46289
 20
1312.0523
 11
537.46289
 21
1291.0521
  0
LINE
  8
1-2
  6
CONTINUOUS
 62
    3
 10
726.46292
 20
1312.0523
 11
726.46292
 21
1291.0521
  0
LINE
  8
1-8
  6
CONTINUOUS
 62
    7
 10
537.46289
 20
1233.1125
 11
537.46289
 21
1156.7263
  0
LINE
  8
1-8
  6
CONTINUOUS
 62
    7
 10
726.46292
 20
1233.1125
 11
726.46292
 21
1156.7263
  0
LINE
  8
1-8
  6
CONTINUOUS
 62
    7
 10
496.96313
 20
842.66479
 11
496.96313
 21
794.92905
  0
LINE
  8
1-8
  6
CONTINUOUS
 62
    7
 10
766.94249
 20
842.66479
 11
766.94249
 21
794.92905
  0
LINE
  8
1-2
  6
CONTINUOUS
 62
    3
 10
540.4629
 20
1001.5522
 11
723.46284
 21
1001.5522
  0
LINE
  8
1-8
  6
CONTINUOUS
 62
    7
 10
540.4629
 20
1023.4536
 11
540.4629
 21
1083.0811
  0
LINE
  8
1-8
  6
CONTINUOUS
 62
    7
 10
723.46284
 20
1023.4536
 11
723.46284
 21
1083.0811
  0
LINE
  8
1-2
  6
CONTINUOUS
 62
    3
 10
540.4629
 20
1007.5522
 11
540.4629
 21
1001.5522
  0
LINE
  8
1-2
  6
CONTINUOUS
 62
    3
 10
540.4629
 20
995.55217
 11
540.4629
 21
974.55239
  0
LINE
  8
1-2
  6
CONTINUOUS
 62
    3
 10
540.4629
 20
995.55224
 11
723.46284
 21
995.55224
  0
LINE
  8
1-2
  6
CONTINUOUS
 62
    3
 10
723.46284
 20
995.55224
 11
723.46284
 21
974.55239
  0
LINE
  8
1-2
  6
CONTINUOUS
 62
    3
 10
723.46291
 20
1007.5522
 11
723.46291
 21
1001.5522
  0
LINE
  8
1-d
  6
CONTINUOUS
 62
    7
 10
333.56058
 20
800.6017
 11
375.44076
 21
800.6017
  0
LINE
  8
1-d
  6
CONTINUOUS
 62
    7
 10
333.56058
 20
800.6017
 11
375.44076
 21
813.16524
  0
LINE
  8
1-d
  6
CONTINUOUS
 62
    7
 10
375.44076
 20
800.6017
 11
375.44076
 21
813.16524
  0
LINE
  8
1-2
  6
CONTINUOUS
 62
    3
 10
726.46292
 20
1285.0522
 11
726.46292
 21
1264.052
  0
LINE
  8
1-2
  6
CONTINUOUS
 62
    3
 10
775.96301
 20
1339.0522
 11
775.96301
 21
1318.052
  0
LINE
  8
1-2
  6
CONTINUOUS
 62
    3
 10
487.96288
 20
1312.0523
 11
775.96338
 21
1312.0523
  0
LINE
  8
1-2
  6
CONTINUOUS
 62
    3
 10
487.96288
 20
1474.0524
 11
775.96338
 21
1474.0524
  0
LINE
  8
1-2
  6
CONTINUOUS
 62
    3
 10
487.96288
 20
1480.0522
 11
775.96338
 21
1480.0522
  0
LINE
  8
1-2
  6
CONTINUOUS
 62
    3
 10
487.96288
 20
1453.0523
 11
775.96338
 21
1453.0523
  0
LINE
  8
1-2
  6
CONTINUOUS
 62
    3
 10
487.96288
 20
1474.0524
 11
487.96288
 21
1453.0521
  0
LINE
  8
1-2
  6
CONTINUOUS
 62
    3
 10
775.96301
 20
1474.0524
 11
775.96301
 21
1453.0521
  0
LINE
  8
1-2
  6
CONTINUOUS
 62
    3
 10
487.96288
 20
1447.0524
 11
775.96338
 21
1447.0524
  0
LINE
  8
1-2
  6
CONTINUOUS
 62
    3
 10
631.96291
 20
1516.0522
 11
569.60911
 21
1480.0522
  0
LINE
  8
1-2
  6
CONTINUOUS
 62
    3
 10
631.96291
 20
1516.0522
 11
694.3167
 21
1480.0522
  0
LINE
  8
1-8
  6
CONTINUOUS
 62
    7
 10
433.14206
 20
1258.0521
 11
271.96302
 21
1258.0521
  0
LINE
  8
1-8
  6
CONTINUOUS
 62
    7
 10
458.64155
 20
1516.0516
 11
271.96302
 21
1516.0516
  0
LINE
  8
1-8
  6
CONTINUOUS
 62
    7
 10
487.96288
 20
1500.8113
 11
487.96288
 21
1574.4107
  0
LINE
  8
1-8
  6
CONTINUOUS
 62
    7
 10
775.96338
 20
1500.8113
 11
775.96338
 21
1574.4107
  0
LINE
  8
1-2
  6
CONTINUOUS
 62
    3
 10
487.96288
 20
1447.0524
 11
487.96288
 21
1345.0521
  0
LINE
  8
1-2
  6
CONTINUOUS
 62
    3
 10
775.96338
 20
1447.0524
 11
775.96338
 21
1345.0521
  0
LINE
  8
1-1
  6
CENTER2
 62
    7
 10
631.96291
 20
1164.541
 11
631.96291
 21
242.59419
  0
LINE
  8
1-1
  6
CENTER2
 62
    7
 10
631.96291
 20
1516.0522
 11
631.96291
 21
1164.541
  0
LINE
  8
1-1
  6
CONTINUOUS
 62
    3
 10
385.96291
 20
695.59408
 11
385.96291
 21
203.59415
  0
LINE
  8
1-2
  6
CONTINUOUS
 62
    3
 10
631.96291
 20
907.05581
 11
385.96291
 21
833.25879
  0
LINE
  8
1-1
  6
CONTINUOUS
 62
    3
 10
385.96291
 20
695.59416
 11
877.9629
 21
695.59416
  0
LINE
  8
1-1
  6
CONTINUOUS
 62
    3
 10
877.9629
 20
695.59416
 11
877.9629
 21
203.59417
  0
LINE
  8
1-1
  6
CONTINUOUS
 62
    3
 10
385.96291
 20
203.59417
 11
877.9629
 21
203.59417
  0
LINE
  8
1-2
  6
CONTINUOUS
 62
    3
 10
877.9629
 20
833.10542
 11
631.96291
 21
907.05581
  0
LINE
  8
1-1
  6
CENTER2
 62
    7
 10
385.96291
 20
449.59417
 11
877.9629
 21
449.59417
  0
LINE
  8
1-8
  6
CONTINUOUS
 62
    7
 10
357.12618
 20
695.59416
 11
271.963
 21
695.59416
  0
LINE
  8
1-8
  6
CONTINUOUS
 62
    7
 10
357.12618
 20
203.59417
 11
271.963
 21
203.59417
  0
LINE
  8
1-8
  6
CONTINUOUS
 62
    7
 10
909.72972
 20
584.59424
 11
991.96298
 21
584.59424
  0
LINE
  8
1-8
  6
CONTINUOUS
 62
    7
 10
909.72972
 20
314.59424
 11
991.96298
 21
314.59424
  0
ARC
  8
1-2
  6
CONTINUOUS
 62
    3
 10
537.46289
 20
1261.0521
 40
2.9998614
 50
90
 51
270
  0
ARC
  8
1-2
  6
CONTINUOUS
 62
    3
 10
537.46289
 20
1288.052
 40
2.9998614
 50
90
 51
270
  0
ARC
  8
1-2
  6
CONTINUOUS
 62
    3
 10
726.46292
 20
1261.0521
 40
2.9998614
 50
270
 51
90
  0
ARC
  8
1-2
  6
CONTINUOUS
 62
    3
 10
726.46292
 20
1288.052
 40
2.9998614
 50
270
 51
90
  0
ARC
  8
1-2
  6
CONTINUOUS
 62
    3
 10
487.96288
 20
1342.0522
 40
2.9998614
 50
90
 51
270
  0
ARC
  8
1-2
  6
CONTINUOUS
 62
    3
 10
487.96288
 20
1315.0521
 40
2.9998614
 50
90
 51
270
  0
ARC
  8
1-2
  6
CONTINUOUS
 62
    3
 10
775.96301
 20
1342.0522
 40
2.9998614
 50
270
 51
90
  0
ARC
  8
1-2
  6
CONTINUOUS
 62
    3
 10
775.96301
 20
1315.0521
 40
2.9998614
 50
270
 51
90
  0
ARC
  8
1-2
  6
CONTINUOUS
 62
    3
 10
723.46291
 20
998.55225
 40
2.9998614
 50
90
 51
270
  0
ARC
  8
1-2
  6
CONTINUOUS
 62
    3
 10
540.46283
 20
998.55225
 40
2.9998614
 50
270
 51
90
  0
ARC
  8
1-2
  6
CONTINUOUS
 62
    3
 10
487.96288
 20
1477.0524
 40
2.9998614
 50
90
 51
270
  0
ARC
  8
1-2
  6
CONTINUOUS
 62
    3
 10
487.96288
 20
1450.0523
 40
2.9998614
 50
90
 51
270
  0
ARC
  8
1-2
  6
CONTINUOUS
 62
    3
 10
775.96301
 20
1477.0524
 40
2.9998614
 50
270
 51
90
  0
ARC
  8
1-2
  6
CONTINUOUS
 62
    3
 10
775.96301
 20
1450.0523
 40
2.9998614
 50
270
 51
90
  0
CIRCLE
  8
1-2
  6
CONTINUOUS
 62
    3
 10
631.96291
 20
449.59402
 40
91.499994
  0
TEXT
  8
1-d
 10
153.00005
 20
70.49999
 40
15
 41
1
 50
0
  1
図
  0
TEXT
  8
1-d
 10
153.00005
 20
34.500002
 40
15
 41
1
 50
0
  1
番
  0
TEXT
  8
1-d
 10
393.00025
 20
70.49999
 40
15
 41
1
 50
0
  1
承
  0
TEXT
  8
1-d
 10
393.00025
 20
34.500002
 40
15
 41
1
 50
0
  1
認
  0
TEXT
  8
1-d
 10
612.00023
 20
118.50001
 40
15
 41
1
 50
0
  1
尺
  0
TEXT
  8
1-d
 10
612.00023
 20
94.500014
 40
15
 41
1
 50
0
  1
度
  0
TEXT
  8
1-d
 10
513.0002
 20
70.49999
 40
15
 41
1
 50
0
  1
製
  0
TEXT
  8
1-d
 10
513.0002
 20
34.500002
 40
15
 41
1
 50
0
  1
図
  0
TEXT
  8
1-d
 10
933.00024
 20
118.50001
 40
15
 41
1
 50
0
  1
日
  0
TEXT
  8
1-d
 10
933.00024
 20
94.500014
 40
15
 41
1
 50
0
  1
付
  0
TEXT
  8
1-d
 10
666.85585
 20
74.089365
 40
12
 41
1
 50
0
  1
株式
  0
TEXT
  8
1-d
 10
666.85585
 20
61.111115
 40
12
 41
1
 50
0
  1
会社
  0
TEXT
  8
1-d
 10
704.5348
 20
61.948414
 40
24
 41
1
 50
0
  1
スズキベンチレーター
  0
TEXT
  8
1-d
 10
742.75089
 20
32.414594
 40
12
 41
1
 50
0
  1
TEL(054)296-7000  FAX(054)296-7001
  0
TEXT
  8
1-8
 10
607.47089
 20
1160.2826
 40
18
 41
1
 50
0
  1
315φ
  0
TEXT
  8
1-8
 10
610.96291
 20
1089.0811
 40
18
 41
1
 50
0
  1
305φ
  0
TEXT
  8
1-8
 10
262.96299
 20
984.30231
 40
18
 41
1
 50
90
  1
55
  0
TEXT
  8
1-8
 10
262.96299
 20
909.30244
 40
18
 41
1
 50
90
  1
180
  0
TEXT
  8
1-8
 10
619.2028
 20
800.92907
 40
18
 41
1
 50
0
  1
450
  0
TEXT
  8
1-8
 10
985.96296
 20
436.84423
 40
18
 41
1
 50
90
  1
450
  0
TEXT
  8
1-8
 10
610.16017
 20
448.31456
 40
18
 41
1
 50
19.303787
  1
305φ
  0
TEXT
  8
1-d
 10
383.11263
 20
800.71624
 40
18
 41
1
 50
0
  1
3
  0
TEXT
  8
1-d
 10
347.74445
 20
778.67448
 40
18
 41
1
 50
0
  1
10
  0
TEXT
  8
1-8
 10
264.27396
 20
1383.9091
 40
18
 41
1
 50
90
  1
430
  0
TEXT
  8
1-8
 10
617.71984
 20
1577.986
 40
18
 41
1
 50
0
  1
480
  0
TEXT
  8
1-d
 10
650.6096
 20
102.06046
 40
24
 41
1
 50
0
  1
１／１０
  0
TEXT
  8
1-d
 10
182.15474
 20
63.341228
 40
18
 41
1
 50
0
  1
30-A05
  0
TEXT
  8
1-8
 10
265.963
 20
436.84416
 40
18
 41
1
 50
90
  1
≒ 820
  0
TEXT
  8
1-d
 10
153.00002
 20
1663.6207
 40
30
 41
1
 50
0
  1
ＤＳ－３００　自然換気　直付型立面、直付袴立面・平面
  0
TEXT
  8
1-1
 10
162.33839
 20
116.81718
 40
18
 41
1
 50
0
  1
ＤＳ－３００　自然換気　直付型立面、
  0
TEXT
  8
1-1
 10
308.9981
 20
93.976743
 40
18
 41
1
 50
0
  1
直付袴立面・平面
  0
TEXT
  8
1-d
 10
741.40774
 20
47.187652
 40
12
 41
1
 50
0
  1
〒421-2114　静岡市葵区安倍口新田１５２番地
  0
POINT
  8
1-8
 62
    2
 10
271.96302
 20
1258.0521
  0
POINT
  8
1-8
 62
    2
 10
271.96302
 20
1516.0516
  0
POINT
  8
1-8
 62
    2
 10
487.96288
 20
1574.4107
  0
POINT
  8
1-8
 62
    2
 10
775.96338
 20
1574.4107
  0
POINT
  8
1-8
 62
    2
 10
271.96302
 20
866.55248
  0
POINT
  8
1-8
 62
    2
 10
271.96302
 20
974.55239
  0
POINT
  8
1-8
 62
    2
 10
271.96302
 20
1007.5522
  0
POINT
  8
1-8
 62
    2
 10
271.963
 20
203.59417
  0
POINT
  8
1-8
 62
    2
 10
271.963
 20
695.59416
  0
POINT
  8
1-8
 62
    2
 10
991.96298
 20
314.59424
  0
POINT
  8
1-8
 62
    2
 10
991.96298
 20
584.59424
  0
POINT
  8
1-8
 62
    2
 10
496.96313
 20
794.92905
  0
POINT
  8
1-8
 62
    2
 10
766.94249
 20
794.92905
  0
POINT
  8
1-8
 62
    2
 10
537.46289
 20
1156.7263
  0
POINT
  8
1-8
 62
    2
 10
726.46292
 20
1156.7263
  0
POINT
  8
1-8
 62
    2
 10
545.6071
 20
419.34624
  0
POINT
  8
1-8
 62
    2
 10
718.31871
 20
479.84168
  0
POINT
  8
1-8
 62
    2
 10
540.4629
 20
1083.0811
  0
POINT
  8
1-8
 62
    2
 10
723.46284
 20
1083.0811
  0
ENDSEC
  0
EOF
