  0
SECTION
  2
HEADER
  9
$EXTMIN
 10
0
 20
0
  9
$EXTMAX
 10
2520
 20
1782
  0
ENDSEC
  0
SECTION
  2
TABLES
  0
TABLE
  2
LTYPE
 70
     9
  0
LTYPE
  2
CONTINUOUS
 70
    64
  3
実線
 72
    65
 73
     0
 40
0.0
  0
LTYPE
  2
DASHED1
 70
    64
  3
--  --  --  --  --  --  --  --  
 72
    65
 73
     2
 40
2.5
 49
1.25
 49
-1.25
  0
LTYPE
  2
DASHED2
 70
    64
  3
----    ----    ----    ----    
 72
    65
 73
     2
 40
5.0
 49
2.5
 49
-2.5
  0
LTYPE
  2
DASHED3
 70
    64
  3
------  ------  ------  ------  
 72
    65
 73
     2
 40
5.0
 49
3.75
 49
-1.25
  0
LTYPE
  2
CENTER1
 70
    64
  3
----- - ----- - ----- - ----- - 
 72
    65
 73
     4
 40
10.0
 49
6.25
 49
-1.25
 49
1.25
 49
-1.25
  0
LTYPE
  2
CENTER2
 70
    64
  3
----------  --  ----------  --  
 72
    65
 73
     4
 40
20.0
 49
12.5
 49
-2.5
 49
2.5
 49
-2.5
  0
LTYPE
  2
PHANTOM1
 70
    64
  3
--- - - --- - - --- - - --- - - 
 72
    65
 73
     6
 40
10.0
 49
3.25
 49
-1.25
 49
1.25
 49
-1.25
 49
1.25
 49
-1.25
  0
LTYPE
  2
PHANTOM2
 70
    64
  3
--------  -  -  --------  -  -  
 72
    65
 73
     6
 40
20.0
 49
10.0
 49
-2.5
 49
1.25
 49
-2.5
 49
1.25
 49
-2.5
  0
LTYPE
  2
DOT
 70
    64
  3
-   -   -   -   -   -   -   -   
 72
    65
 73
     2
 40
2.5
 49
0.625
 49
-1.875
  0
ENDTAB
  0
TABLE
  2
STYLE
 70
    1
  0
STYLE
  2
STANDARD
 70
    64
 40
0.0
 41
1.0
 42
0.0
 50
0.0
 71
     0
  3
TXT
  4
BIGFONT
  0
ENDTAB
  0
TABLE
  2
LAYER
 70
    7
  0
LAYER
  2
0-1
 70
   64
 62
    7
  6
CONTINUOUS
  0
LAYER
  2
0-2
 70
   64
 62
    7
  6
CONTINUOUS
  0
LAYER
  2
0-3
 70
   64
 62
    7
  6
CONTINUOUS
  0
LAYER
  2
0-5
 70
   64
 62
    7
  6
CONTINUOUS
  0
LAYER
  2
0-8
 70
   64
 62
    7
  6
CONTINUOUS
  0
LAYER
  2
0-d
 70
   64
 62
    7
  6
CONTINUOUS
  0
LAYER
  2
ADD_LINE
 70
   64
 62
    7
  6
CONTINUOUS
  0
ENDTAB
  0
ENDSEC
  0
SECTION
  2
ENTITIES
  0
LINE
  8
0-d
  6
CONTINUOUS
 62
    7
 10
104.2379
 20
105.53526
 11
1064.2383
 21
105.53526
  0
LINE
  8
0-d
  6
CONTINUOUS
 62
    7
 10
104.2379
 20
45.535211
 11
104.2379
 21
153.53527
  0
LINE
  8
0-d
  6
CONTINUOUS
 62
    7
 10
104.2379
 20
45.535211
 11
1064.2383
 21
45.535211
  0
LINE
  8
0-d
  6
CONTINUOUS
 62
    7
 10
1064.2383
 20
153.53527
 11
1064.2383
 21
45.535211
  0
LINE
  8
0-d
  6
CONTINUOUS
 62
    7
 10
104.2379
 20
153.53527
 11
1064.2383
 21
153.53527
  0
LINE
  8
0-d
  6
CONTINUOUS
 62
    7
 10
584.23807
 20
153.53527
 11
584.23807
 21
45.535211
  0
LINE
  8
0-d
  6
CONTINUOUS
 62
    7
 10
344.23817
 20
45.535211
 11
344.23817
 21
105.53526
  0
LINE
  8
0-d
  6
CONTINUOUS
 62
    7
 10
584.23807
 20
105.53526
 11
584.23807
 21
153.53527
  0
LINE
  8
0-d
  6
CONTINUOUS
 62
    7
 10
464.23798
 20
45.535211
 11
464.23798
 21
105.53526
  0
LINE
  8
0-d
  6
CONTINUOUS
 62
    7
 10
125.23812
 20
45.535211
 11
125.23812
 21
105.53526
  0
LINE
  8
0-d
  6
CONTINUOUS
 62
    7
 10
365.2381
 20
45.535211
 11
365.2381
 21
105.53526
  0
LINE
  8
0-d
  6
CONTINUOUS
 62
    7
 10
485.23819
 20
45.535211
 11
485.23819
 21
105.53526
  0
LINE
  8
0-d
  6
CONTINUOUS
 62
    7
 10
563.23815
 20
105.53526
 11
563.23815
 21
153.53527
  0
LINE
  8
0-d
  6
CONTINUOUS
 62
    7
 10
884.23832
 20
105.53526
 11
884.23832
 21
153.53527
  0
LINE
  8
0-d
  6
CONTINUOUS
 62
    7
 10
905.23824
 20
105.53526
 11
905.23824
 21
153.53527
  0
LINE
  8
0-d
  6
CONTINUOUS
 62
    7
 10
104.23805
 20
1670.1559
 11
1064.238
 21
1670.1559
  0
LINE
  8
0-d
  6
CONTINUOUS
 62
    7
 10
104.23805
 20
1676.1561
 11
1064.238
 21
1676.1561
  0
LINE
  8
0-8
  6
CONTINUOUS
 62
    7
 10
334.23802
 20
1522.5301
 11
834.23798
 21
1522.5301
  0
LINE
  8
0-8
  6
CONTINUOUS
 62
    7
 10
334.23802
 20
1413.2007
 11
334.23802
 21
1522.5301
  0
LINE
  8
0-8
  6
CONTINUOUS
 62
    7
 10
834.23798
 20
1413.2007
 11
834.23798
 21
1522.5301
  0
LINE
  8
0-2
  6
CONTINUOUS
 62
    3
 10
322.93813
 20
1373.5537
 11
584.238
 21
1436.2646
  0
LINE
  8
0-2
  6
CONTINUOUS
 62
    3
 10
845.53757
 20
1373.5537
 11
584.238
 21
1436.2646
  0
LINE
  8
0-8
  6
CONTINUOUS
 62
    7
 10
184.23827
 20
1085.7654
 11
184.23827
 21
1436.2646
  0
LINE
  8
0-8
  6
CONTINUOUS
 62
    7
 10
301.73897
 20
1085.7654
 11
184.23827
 21
1085.7654
  0
LINE
  8
0-2
  6
CONTINUOUS
 62
    3
 10
334.23802
 20
1376.265
 11
334.23802
 21
1300.7649
  0
LINE
  8
0-2
  6
CONTINUOUS
 62
    3
 10
334.23802
 20
1290.7651
 11
334.23802
 21
1255.7647
  0
LINE
  8
0-2
  6
CONTINUOUS
 62
    3
 10
834.23798
 20
1376.265
 11
834.23798
 21
1300.7649
  0
LINE
  8
0-8
  6
CONTINUOUS
 62
    7
 10
384.29024
 20
1436.2646
 11
184.23827
 21
1436.2646
  0
LINE
  8
0-2
  6
CONTINUOUS
 62
    3
 10
334.23802
 20
1245.7651
 11
584.238
 21
1245.7651
  0
LINE
  8
0-2
  6
CONTINUOUS
 62
    3
 10
334.23802
 20
1255.7649
 11
584.238
 21
1255.7649
  0
LINE
  8
0-2
  6
CONTINUOUS
 62
    3
 10
334.23802
 20
1290.7651
 11
584.238
 21
1290.7651
  0
LINE
  8
0-2
  6
CONTINUOUS
 62
    3
 10
334.23802
 20
1300.7649
 11
584.238
 21
1300.7649
  0
LINE
  8
0-2
  6
CONTINUOUS
 62
    3
 10
834.23739
 20
1290.7651
 11
834.23739
 21
1255.7647
  0
LINE
  8
0-2
  6
CONTINUOUS
 62
    3
 10
694.81205
 20
1409.7273
 11
582.73399
 21
1409.7273
  0
LINE
  8
0-2
  6
CONTINUOUS
 62
    3
 10
334.23802
 20
1376.265
 11
584.238
 21
1376.265
  0
LINE
  8
0-8
  6
CONTINUOUS
 62
    7
 10
981.83484
 20
1245.7651
 11
981.83484
 21
1376.1581
  0
LINE
  8
0-8
  6
CONTINUOUS
 62
    7
 10
845.53757
 20
1376.1581
 11
981.83484
 21
1376.1581
  0
LINE
  8
0-8
  6
CONTINUOUS
 62
    7
 10
981.83484
 20
1376.1581
 11
981.83484
 21
1436.2646
  0
LINE
  8
0-8
  6
CONTINUOUS
 62
    7
 10
845.53757
 20
1436.2646
 11
981.83484
 21
1436.2646
  0
LINE
  8
0-8
  6
CONTINUOUS
 62
    7
 10
981.83484
 20
1085.7651
 11
981.83484
 21
1145.7651
  0
LINE
  8
0-8
  6
CONTINUOUS
 62
    7
 10
845.53757
 20
1085.7651
 11
981.83484
 21
1085.7651
  0
LINE
  8
0-8
  6
CONTINUOUS
 62
    7
 10
845.53757
 20
1145.7651
 11
981.83484
 21
1145.7651
  0
LINE
  8
0-8
  6
CONTINUOUS
 62
    7
 10
981.83484
 20
1145.7651
 11
981.83484
 21
1245.7651
  0
LINE
  8
0-8
  6
CONTINUOUS
 62
    7
 10
845.53757
 20
1245.7651
 11
981.83484
 21
1245.7651
  0
LINE
  8
0-5
  6
CONTINUOUS
 62
    7
 10
775.48859
 20
1390.3652
 11
584.238
 21
1390.3652
  0
LINE
  8
0-5
  6
CONTINUOUS
 62
    4
 10
775.48859
 20
1387.365
 11
584.238
 21
1387.365
  0
LINE
  8
0-5
  6
CONTINUOUS
 62
    4
 10
775.48859
 20
1384.3652
 11
584.238
 21
1384.3652
  0
LINE
  8
0-5
  6
CONTINUOUS
 62
    4
 10
775.48859
 20
1381.365
 11
584.238
 21
1381.365
  0
LINE
  8
0-5
  6
CONTINUOUS
 62
    4
 10
775.48859
 20
1378.365
 11
584.238
 21
1378.365
  0
LINE
  8
0-5
  6
CONTINUOUS
 62
    4
 10
775.48859
 20
1375.365
 11
584.238
 21
1375.365
  0
LINE
  8
0-5
  6
CONTINUOUS
 62
    4
 10
775.48859
 20
1372.3651
 11
584.238
 21
1372.3651
  0
LINE
  8
0-5
  6
CONTINUOUS
 62
    4
 10
775.48859
 20
1369.3651
 11
584.238
 21
1369.3651
  0
LINE
  8
0-5
  6
CONTINUOUS
 62
    4
 10
775.48859
 20
1366.3651
 11
584.238
 21
1366.3651
  0
LINE
  8
0-5
  6
CONTINUOUS
 62
    4
 10
775.48859
 20
1363.3653
 11
584.238
 21
1363.3653
  0
LINE
  8
0-5
  6
CONTINUOUS
 62
    4
 10
775.48859
 20
1360.3651
 11
584.238
 21
1360.3651
  0
LINE
  8
0-5
  6
CONTINUOUS
 62
    4
 10
775.48859
 20
1357.3652
 11
584.238
 21
1357.3652
  0
LINE
  8
0-5
  6
CONTINUOUS
 62
    4
 10
775.48859
 20
1354.3651
 11
584.238
 21
1354.3651
  0
LINE
  8
0-5
  6
CONTINUOUS
 62
    4
 10
775.48859
 20
1351.3652
 11
584.238
 21
1351.3652
  0
LINE
  8
0-5
  6
CONTINUOUS
 62
    4
 10
775.48859
 20
1348.3651
 11
584.238
 21
1348.3651
  0
LINE
  8
0-5
  6
CONTINUOUS
 62
    4
 10
775.48859
 20
1345.3652
 11
584.238
 21
1345.3652
  0
LINE
  8
0-5
  6
CONTINUOUS
 62
    4
 10
775.48859
 20
1342.365
 11
584.238
 21
1342.365
  0
LINE
  8
0-5
  6
CONTINUOUS
 62
    4
 10
775.48859
 20
1339.3652
 11
584.238
 21
1339.3652
  0
LINE
  8
0-5
  6
CONTINUOUS
 62
    4
 10
775.48859
 20
1336.365
 11
584.238
 21
1336.365
  0
LINE
  8
0-5
  6
CONTINUOUS
 62
    4
 10
775.48859
 20
1333.3652
 11
584.238
 21
1333.3652
  0
LINE
  8
0-2
  6
CONTINUOUS
 62
    3
 10
775.48859
 20
1376.265
 11
834.23798
 21
1376.265
  0
LINE
  8
0-8
  6
CONTINUOUS
 62
    7
 10
324.23808
 20
1008.4548
 11
844.23806
 21
1008.4548
  0
LINE
  8
0-2
  6
CONTINUOUS
 62
    3
 10
741.73874
 20
1330.7658
 11
584.23859
 21
1330.7658
  0
LINE
  8
0-8
  6
CONTINUOUS
 62
    7
 10
741.738
 20
1145.7651
 11
818.42108
 21
1145.7651
  0
LINE
  8
0-2
  6
CONTINUOUS
 62
    3
 10
741.73874
 20
1320.7656
 11
584.238
 21
1320.7656
  0
LINE
  8
0-8
  6
CONTINUOUS
 62
    7
 10
741.738
 20
1330.7658
 11
818.42108
 21
1330.7658
  0
LINE
  8
0-8
  6
CONTINUOUS
 62
    7
 10
818.42108
 20
1145.7651
 11
818.42108
 21
1330.7658
  0
LINE
  8
0-2
  6
CONTINUOUS
 62
    3
 10
324.23808
 20
1085.7652
 11
324.23808
 21
1145.7651
  0
LINE
  8
0-2
  6
CONTINUOUS
 62
    3
 10
324.23808
 20
1085.7652
 11
844.23806
 21
1085.7652
  0
LINE
  8
0-2
  6
CONTINUOUS
 62
    3
 10
844.23806
 20
1085.7652
 11
844.23806
 21
1145.7651
  0
LINE
  8
0-2
  6
CONTINUOUS
 62
    3
 10
324.23808
 20
1145.7651
 11
844.23806
 21
1145.7651
  0
LINE
  8
0-2
  6
CONTINUOUS
 62
    3
 10
426.738
 20
1225.7648
 11
584.238
 21
1225.7648
  0
LINE
  8
0-2
  6
CONTINUOUS
 62
    3
 10
426.738
 20
1215.765
 11
584.238
 21
1215.765
  0
LINE
  8
0-2
  6
CONTINUOUS
 62
    3
 10
741.738
 20
1320.7656
 11
741.738
 21
1225.7649
  0
LINE
  8
0-8
  6
CONTINUOUS
 62
    7
 10
324.23808
 20
1070.9935
 11
324.23808
 21
1008.4548
  0
LINE
  8
0-8
  6
CONTINUOUS
 62
    7
 10
844.23806
 20
1070.9935
 11
844.23806
 21
1008.4548
  0
LINE
  8
0-2
  6
CONTINUOUS
 62
    3
 10
426.738
 20
1245.7652
 11
426.738
 21
1225.7646
  0
LINE
  8
0-2
  6
CONTINUOUS
 62
    3
 10
324.23808
 20
1145.7651
 11
447.99951
 21
1215.765
  0
LINE
  8
0-2
  6
CONTINUOUS
 62
    3
 10
426.738
 20
1215.765
 11
426.738
 21
1203.7395
  0
LINE
  8
0-3
  6
CONTINUOUS
 62
    3
 10
595.32929
 20
1274.9419
 11
598.24809
 21
1276.7357
  0
LINE
  8
0-3
  6
CONTINUOUS
 62
    3
 10
598.24809
 20
1276.7357
 11
601.15308
 21
1278.5653
  0
LINE
  8
0-3
  6
CONTINUOUS
 62
    3
 10
601.15308
 20
1278.5653
 11
604.03076
 21
1280.4633
  0
LINE
  8
0-3
  6
CONTINUOUS
 62
    3
 10
604.03076
 20
1280.4633
 11
606.84875
 21
1282.467
  0
LINE
  8
0-3
  6
CONTINUOUS
 62
    3
 10
606.84875
 20
1282.467
 11
609.55584
 21
1284.6164
  0
LINE
  8
0-3
  6
CONTINUOUS
 62
    3
 10
609.55584
 20
1284.6164
 11
612.09517
 21
1286.9467
  0
LINE
  8
0-3
  6
CONTINUOUS
 62
    3
 10
612.09517
 20
1286.9467
 11
614.41136
 21
1289.4997
  0
LINE
  8
0-3
  6
CONTINUOUS
 62
    3
 10
614.41136
 20
1289.4997
 11
616.44873
 21
1292.311
  0
LINE
  8
0-3
  6
CONTINUOUS
 62
    3
 10
616.44873
 20
1292.311
 11
618.22584
 21
1295.3522
  0
LINE
  8
0-3
  6
CONTINUOUS
 62
    3
 10
618.22584
 20
1295.3522
 11
619.90482
 21
1298.4577
  0
LINE
  8
0-3
  6
CONTINUOUS
 62
    3
 10
619.90482
 20
1298.4577
 11
621.65654
 21
1301.4522
  0
LINE
  8
0-3
  6
CONTINUOUS
 62
    3
 10
621.65654
 20
1301.4522
 11
623.66051
 21
1304.1605
  0
LINE
  8
0-3
  6
CONTINUOUS
 62
    3
 10
623.66051
 20
1304.1605
 11
626.08611
 21
1306.4062
  0
LINE
  8
0-3
  6
CONTINUOUS
 62
    3
 10
626.08611
 20
1306.4062
 11
628.98724
 21
1308.1423
  0
LINE
  8
0-3
  6
CONTINUOUS
 62
    3
 10
628.98724
 20
1308.1423
 11
632.18679
 21
1309.5608
  0
LINE
  8
0-3
  6
CONTINUOUS
 62
    3
 10
632.18679
 20
1309.5608
 11
633.70142
 21
1310.1662
  0
LINE
  8
0-3
  6
CONTINUOUS
 62
    3
 10
632.18679
 20
1309.5608
 11
634.29379
 21
1309.8957
  0
LINE
  8
0-3
  6
CONTINUOUS
 62
    3
 10
634.29379
 20
1309.8957
 11
636.41979
 21
1310.187
  0
LINE
  8
0-3
  6
CONTINUOUS
 62
    3
 10
636.41979
 20
1310.187
 11
638.58068
 21
1310.3954
  0
LINE
  8
0-3
  6
CONTINUOUS
 62
    3
 10
638.58068
 20
1310.3954
 11
640.79473
 21
1310.4744
  0
LINE
  8
0-3
  6
CONTINUOUS
 62
    3
 10
640.79473
 20
1310.4744
 11
643.07632
 21
1310.3853
  0
LINE
  8
0-3
  6
CONTINUOUS
 62
    3
 10
643.07632
 20
1310.3853
 11
645.3591
 21
1310.0525
  0
LINE
  8
0-3
  6
CONTINUOUS
 62
    3
 10
645.3591
 20
1310.0525
 11
647.48881
 21
1309.3853
  0
LINE
  8
0-3
  6
CONTINUOUS
 62
    3
 10
647.48881
 20
1309.3853
 11
649.30393
 21
1308.2798
  0
LINE
  8
0-3
  6
CONTINUOUS
 62
    3
 10
649.30393
 20
1308.2798
 11
650.67411
 21
1306.6639
  0
LINE
  8
0-3
  6
CONTINUOUS
 62
    3
 10
650.67411
 20
1306.6639
 11
651.7423
 21
1304.7238
  0
LINE
  8
0-3
  6
CONTINUOUS
 62
    3
 10
594.1833
 20
1266.924
 11
597.60376
 21
1267.4317
  0
LINE
  8
0-3
  6
CONTINUOUS
 62
    3
 10
597.60376
 20
1267.4317
 11
601.00314
 21
1268.0066
  0
LINE
  8
0-3
  6
CONTINUOUS
 62
    3
 10
601.00314
 20
1268.0066
 11
604.3651
 21
1268.7085
  0
LINE
  8
0-3
  6
CONTINUOUS
 62
    3
 10
604.3651
 20
1268.7085
 11
607.66664
 21
1269.607
  0
LINE
  8
0-3
  6
CONTINUOUS
 62
    3
 10
607.66664
 20
1269.607
 11
610.89083
 21
1270.7639
  0
LINE
  8
0-3
  6
CONTINUOUS
 62
    3
 10
610.89083
 20
1270.7639
 11
614.01941
 21
1272.1948
  0
LINE
  8
0-3
  6
CONTINUOUS
 62
    3
 10
614.01941
 20
1272.1948
 11
617.03887
 21
1273.8715
  0
LINE
  8
0-3
  6
CONTINUOUS
 62
    3
 10
617.03887
 20
1273.8715
 11
619.93302
 21
1275.7757
  0
LINE
  8
0-3
  6
CONTINUOUS
 62
    3
 10
619.93302
 20
1275.7757
 11
622.68792
 21
1277.8732
  0
LINE
  8
0-3
  6
CONTINUOUS
 62
    3
 10
622.68792
 20
1277.8732
 11
625.2902
 21
1280.1432
  0
LINE
  8
0-3
  6
CONTINUOUS
 62
    3
 10
625.2902
 20
1280.1432
 11
627.76019
 21
1282.5454
  0
LINE
  8
0-3
  6
CONTINUOUS
 62
    3
 10
627.76019
 20
1282.5454
 11
630.14749
 21
1285.0244
  0
LINE
  8
0-3
  6
CONTINUOUS
 62
    3
 10
630.14749
 20
1285.0244
 11
632.5045
 21
1287.526
  0
LINE
  8
0-3
  6
CONTINUOUS
 62
    3
 10
632.5045
 20
1287.526
 11
634.88126
 21
1289.9944
  0
LINE
  8
0-3
  6
CONTINUOUS
 62
    3
 10
634.88126
 20
1289.9944
 11
637.33195
 21
1292.3764
  0
LINE
  8
0-3
  6
CONTINUOUS
 62
    3
 10
637.33195
 20
1292.3764
 11
639.90335
 21
1294.6238
  0
LINE
  8
0-3
  6
CONTINUOUS
 62
    3
 10
639.90335
 20
1294.6238
 11
642.59233
 21
1296.7355
  0
LINE
  8
0-3
  6
CONTINUOUS
 62
    3
 10
642.59233
 20
1296.7355
 11
645.37706
 21
1298.7434
  0
LINE
  8
0-3
  6
CONTINUOUS
 62
    3
 10
645.37706
 20
1298.7434
 11
648.22802
 21
1300.6734
  0
LINE
  8
0-3
  6
CONTINUOUS
 62
    3
 10
648.22802
 20
1300.6734
 11
651.12425
 21
1302.555
  0
LINE
  8
0-3
  6
CONTINUOUS
 62
    3
 10
651.12425
 20
1302.555
 11
653.17454
 21
1303.8654
  0
LINE
  8
0-3
  6
CONTINUOUS
 62
    3
 10
653.17454
 20
1303.8654
 11
656.37364
 21
1305.1923
  0
LINE
  8
0-3
  6
CONTINUOUS
 62
    3
 10
656.37364
 20
1305.1923
 11
659.59114
 21
1306.4311
  0
LINE
  8
0-3
  6
CONTINUOUS
 62
    3
 10
659.59114
 20
1306.4311
 11
662.84666
 21
1307.4947
  0
LINE
  8
0-3
  6
CONTINUOUS
 62
    3
 10
662.84666
 20
1307.4947
 11
666.15934
 21
1308.2961
  0
LINE
  8
0-3
  6
CONTINUOUS
 62
    3
 10
666.15934
 20
1308.2961
 11
669.53689
 21
1308.7873
  0
LINE
  8
0-3
  6
CONTINUOUS
 62
    3
 10
669.53689
 20
1308.7873
 11
672.96299
 21
1309.0028
  0
LINE
  8
0-3
  6
CONTINUOUS
 62
    3
 10
672.96299
 20
1309.0028
 11
676.41775
 21
1308.9904
  0
LINE
  8
0-3
  6
CONTINUOUS
 62
    3
 10
676.41775
 20
1308.9904
 11
679.88274
 21
1308.7959
  0
LINE
  8
0-3
  6
CONTINUOUS
 62
    3
 10
679.88274
 20
1308.7959
 11
683.34166
 21
1308.4675
  0
LINE
  8
0-3
  6
CONTINUOUS
 62
    3
 10
683.34166
 20
1308.4675
 11
686.7737
 21
1308.0455
  0
LINE
  8
0-3
  6
CONTINUOUS
 62
    3
 10
686.7737
 20
1308.0455
 11
690.17589
 21
1307.5206
  0
LINE
  8
0-3
  6
CONTINUOUS
 62
    3
 10
690.17589
 20
1307.5206
 11
693.54899
 21
1306.8816
  0
LINE
  8
0-3
  6
CONTINUOUS
 62
    3
 10
693.54899
 20
1306.8816
 11
696.8881
 21
1306.1063
  0
LINE
  8
0-3
  6
CONTINUOUS
 62
    3
 10
696.8881
 20
1306.1063
 11
700.19513
 21
1305.1817
  0
LINE
  8
0-3
  6
CONTINUOUS
 62
    3
 10
700.19513
 20
1305.1817
 11
703.46891
 21
1304.0869
  0
LINE
  8
0-3
  6
CONTINUOUS
 62
    3
 10
703.46891
 20
1304.0869
 11
706.69607
 21
1302.8065
  0
LINE
  8
0-3
  6
CONTINUOUS
 62
    3
 10
706.69607
 20
1302.8065
 11
709.84662
 21
1301.3263
  0
LINE
  8
0-3
  6
CONTINUOUS
 62
    3
 10
709.84662
 20
1301.3263
 11
712.87454
 21
1299.6371
  0
LINE
  8
0-3
  6
CONTINUOUS
 62
    3
 10
712.87454
 20
1299.6371
 11
715.74049
 21
1297.7234
  0
LINE
  8
0-3
  6
CONTINUOUS
 62
    3
 10
715.74049
 20
1297.7234
 11
718.40304
 21
1295.5704
  0
LINE
  8
0-3
  6
CONTINUOUS
 62
    3
 10
718.40304
 20
1295.5704
 11
720.82508
 21
1293.1727
  0
LINE
  8
0-3
  6
CONTINUOUS
 62
    3
 10
720.82508
 20
1293.1727
 11
723.03793
 21
1290.5651
  0
LINE
  8
0-3
  6
CONTINUOUS
 62
    3
 10
723.03793
 20
1290.5651
 11
725.09668
 21
1287.8051
  0
LINE
  8
0-3
  6
CONTINUOUS
 62
    3
 10
725.09668
 20
1287.8051
 11
727.05967
 21
1284.9517
  0
LINE
  8
0-3
  6
CONTINUOUS
 62
    3
 10
727.05967
 20
1284.9517
 11
728.20032
 21
1283.2476
  0
LINE
  8
0-3
  6
CONTINUOUS
 62
    3
 10
727.05967
 20
1284.9517
 11
728.59449
 21
1281.7734
  0
LINE
  8
0-3
  6
CONTINUOUS
 62
    3
 10
728.59449
 20
1281.7734
 11
730.04765
 21
1278.5808
  0
LINE
  8
0-3
  6
CONTINUOUS
 62
    3
 10
730.04765
 20
1278.5808
 11
731.34048
 21
1275.366
  0
LINE
  8
0-3
  6
CONTINUOUS
 62
    3
 10
731.34048
 20
1275.366
 11
732.39056
 21
1272.111
  0
LINE
  8
0-3
  6
CONTINUOUS
 62
    3
 10
732.39056
 20
1272.111
 11
733.11804
 21
1268.8074
  0
LINE
  8
0-3
  6
CONTINUOUS
 62
    3
 10
733.11804
 20
1268.8074
 11
733.4451
 21
1265.4417
  0
LINE
  8
0-3
  6
CONTINUOUS
 62
    3
 10
733.4451
 20
1265.4417
 11
733.35127
 21
1262.0277
  0
LINE
  8
0-3
  6
CONTINUOUS
 62
    3
 10
733.35127
 20
1262.0277
 11
732.89371
 21
1258.5987
  0
LINE
  8
0-3
  6
CONTINUOUS
 62
    3
 10
732.89371
 20
1258.5987
 11
732.1312
 21
1255.1942
  0
LINE
  8
0-3
  6
CONTINUOUS
 62
    3
 10
732.1312
 20
1255.1942
 11
731.1163
 21
1251.8534
  0
LINE
  8
0-3
  6
CONTINUOUS
 62
    3
 10
731.1163
 20
1251.8534
 11
729.86579
 21
1248.6224
  0
LINE
  8
0-3
  6
CONTINUOUS
 62
    3
 10
729.86579
 20
1248.6224
 11
728.34596
 21
1245.5467
  0
LINE
  8
0-3
  6
CONTINUOUS
 62
    3
 10
728.34596
 20
1245.5467
 11
726.52
 21
1242.6739
  0
LINE
  8
0-3
  6
CONTINUOUS
 62
    3
 10
726.52
 20
1242.6739
 11
724.39237
 21
1240.0212
  0
LINE
  8
0-3
  6
CONTINUOUS
 62
    3
 10
724.39237
 20
1240.0212
 11
722.02734
 21
1237.5393
  0
LINE
  8
0-3
  6
CONTINUOUS
 62
    3
 10
722.02734
 20
1237.5393
 11
719.49915
 21
1235.1766
  0
LINE
  8
0-3
  6
CONTINUOUS
 62
    3
 10
719.49915
 20
1235.1766
 11
716.87891
 21
1232.8827
  0
LINE
  8
0-3
  6
CONTINUOUS
 62
    3
 10
716.87891
 20
1232.8827
 11
716.17252
 21
1232.2756
  0
LINE
  8
0-3
  6
CONTINUOUS
 62
    3
 10
716.87891
 20
1232.8827
 11
713.87162
 21
1231.1968
  0
LINE
  8
0-3
  6
CONTINUOUS
 62
    3
 10
713.87162
 20
1231.1968
 11
710.85276
 21
1229.5418
  0
LINE
  8
0-3
  6
CONTINUOUS
 62
    3
 10
710.85276
 20
1229.5418
 11
707.80895
 21
1227.9473
  0
LINE
  8
0-3
  6
CONTINUOUS
 62
    3
 10
707.80895
 20
1227.9473
 11
704.72328
 21
1226.443
  0
LINE
  8
0-3
  6
CONTINUOUS
 62
    3
 10
704.72328
 20
1226.443
 11
701.58831
 21
1225.059
  0
LINE
  8
0-3
  6
CONTINUOUS
 62
    3
 10
701.58831
 20
1225.059
 11
698.38639
 21
1223.8248
  0
LINE
  8
0-3
  6
CONTINUOUS
 62
    3
 10
698.38639
 20
1223.8248
 11
695.11707
 21
1222.7581
  0
LINE
  8
0-3
  6
CONTINUOUS
 62
    3
 10
695.11707
 20
1222.7581
 11
691.79356
 21
1221.8628
  0
LINE
  8
0-3
  6
CONTINUOUS
 62
    3
 10
691.79356
 20
1221.8628
 11
688.42847
 21
1221.1374
  0
LINE
  8
0-3
  6
CONTINUOUS
 62
    3
 10
688.42847
 20
1221.1374
 11
685.03251
 21
1220.5828
  0
LINE
  8
0-3
  6
CONTINUOUS
 62
    3
 10
685.03251
 20
1220.5828
 11
681.62185
 21
1220.1946
  0
LINE
  8
0-3
  6
CONTINUOUS
 62
    3
 10
681.62185
 20
1220.1946
 11
678.19976
 21
1219.9434
  0
LINE
  8
0-3
  6
CONTINUOUS
 62
    3
 10
678.19976
 20
1219.9434
 11
674.76905
 21
1219.7969
  0
LINE
  8
0-3
  6
CONTINUOUS
 62
    3
 10
674.76905
 20
1219.7969
 11
671.33048
 21
1219.7174
  0
LINE
  8
0-3
  6
CONTINUOUS
 62
    3
 10
671.33048
 20
1219.7174
 11
668.35007
 21
1219.6755
  0
LINE
  8
0-3
  6
CONTINUOUS
 62
    3
 10
629.93014
 20
1219.3597
 11
633.14587
 21
1218.0581
  0
LINE
  8
0-3
  6
CONTINUOUS
 62
    3
 10
633.14587
 20
1218.0581
 11
636.38075
 21
1216.7713
  0
LINE
  8
0-3
  6
CONTINUOUS
 62
    3
 10
636.38075
 20
1216.7713
 11
639.64561
 21
1215.5855
  0
LINE
  8
0-3
  6
CONTINUOUS
 62
    3
 10
639.64561
 20
1215.5855
 11
642.94181
 21
1214.5969
  0
LINE
  8
0-3
  6
CONTINUOUS
 62
    3
 10
642.94181
 20
1214.5969
 11
646.27839
 21
1213.8997
  0
LINE
  8
0-3
  6
CONTINUOUS
 62
    3
 10
646.27839
 20
1213.8997
 11
649.66247
 21
1213.5874
  0
LINE
  8
0-3
  6
CONTINUOUS
 62
    3
 10
649.66247
 20
1213.5874
 11
653.0859
 21
1213.6362
  0
LINE
  8
0-3
  6
CONTINUOUS
 62
    3
 10
653.0859
 20
1213.6362
 11
656.53442
 21
1213.8905
  0
LINE
  8
0-3
  6
CONTINUOUS
 62
    3
 10
656.53442
 20
1213.8905
 11
657.18232
 21
1213.9478
  0
LINE
  8
0-3
  6
CONTINUOUS
 62
    3
 10
656.53442
 20
1213.8905
 11
659.3542
 21
1214.5194
  0
LINE
  8
0-3
  6
CONTINUOUS
 62
    3
 10
659.3542
 20
1214.5194
 11
662.06054
 21
1215.3895
  0
LINE
  8
0-3
  6
CONTINUOUS
 62
    3
 10
662.06054
 20
1215.3895
 11
664.54375
 21
1216.7444
  0
LINE
  8
0-3
  6
CONTINUOUS
 62
    3
 10
664.54375
 20
1216.7444
 11
666.6607
 21
1218.6882
  0
LINE
  8
0-3
  6
CONTINUOUS
 62
    3
 10
666.6607
 20
1218.6882
 11
668.23041
 21
1221.125
  0
LINE
  8
0-3
  6
CONTINUOUS
 62
    3
 10
668.23041
 20
1221.125
 11
669.08526
 21
1223.9112
  0
LINE
  8
0-3
  6
CONTINUOUS
 62
    3
 10
669.08526
 20
1223.9112
 11
669.14836
 21
1226.7927
  0
LINE
  8
0-3
  6
CONTINUOUS
 62
    3
 10
669.14836
 20
1226.7927
 11
668.38585
 21
1229.4924
  0
LINE
  8
0-3
  6
CONTINUOUS
 62
    3
 10
668.38585
 20
1229.4924
 11
666.96089
 21
1231.9483
  0
LINE
  8
0-3
  6
CONTINUOUS
 62
    3
 10
666.96089
 20
1231.9483
 11
665.2007
 21
1234.2797
  0
LINE
  8
0-3
  6
CONTINUOUS
 62
    3
 10
599.1313
 20
1262.4793
 11
602.5969
 21
1261.8893
  0
LINE
  8
0-3
  6
CONTINUOUS
 62
    3
 10
602.5969
 20
1261.8893
 11
606.05106
 21
1261.3991
  0
LINE
  8
0-3
  6
CONTINUOUS
 62
    3
 10
606.05106
 20
1261.3991
 11
609.47998
 21
1261.1078
  0
LINE
  8
0-3
  6
CONTINUOUS
 62
    3
 10
609.47998
 20
1261.1078
 11
612.87178
 21
1261.1131
  0
LINE
  8
0-3
  6
CONTINUOUS
 62
    3
 10
612.87178
 20
1261.1131
 11
616.21386
 21
1261.5119
  0
LINE
  8
0-3
  6
CONTINUOUS
 62
    3
 10
616.21386
 20
1261.5119
 11
619.50693
 21
1262.3228
  0
LINE
  8
0-3
  6
CONTINUOUS
 62
    3
 10
619.50693
 20
1262.3228
 11
622.758
 21
1263.4354
  0
LINE
  8
0-3
  6
CONTINUOUS
 62
    3
 10
622.758
 20
1263.4354
 11
625.98263
 21
1264.7401
  0
LINE
  8
0-3
  6
CONTINUOUS
 62
    3
 10
625.98263
 20
1264.7401
 11
629.18722
 21
1266.119
  0
LINE
  8
0-3
  6
CONTINUOUS
 62
    3
 10
629.18722
 20
1266.119
 11
632.3884
 21
1267.4727
  0
LINE
  8
0-3
  6
CONTINUOUS
 62
    3
 10
632.3884
 20
1267.4727
 11
635.58602
 21
1268.7756
  0
LINE
  8
0-3
  6
CONTINUOUS
 62
    3
 10
635.58602
 20
1268.7756
 11
638.78363
 21
1270.04
  0
LINE
  8
0-3
  6
CONTINUOUS
 62
    3
 10
638.78363
 20
1270.04
 11
641.97769
 21
1271.2725
  0
LINE
  8
0-3
  6
CONTINUOUS
 62
    3
 10
641.97769
 20
1271.2725
 11
645.17174
 21
1272.4825
  0
LINE
  8
0-3
  6
CONTINUOUS
 62
    3
 10
645.17174
 20
1272.4825
 11
648.36638
 21
1273.6812
  0
LINE
  8
0-3
  6
CONTINUOUS
 62
    3
 10
648.36638
 20
1273.6812
 11
648.32184
 21
1270.7389
  0
LINE
  8
0-3
  6
CONTINUOUS
 62
    3
 10
648.32184
 20
1270.7389
 11
648.27953
 21
1267.7999
  0
LINE
  8
0-3
  6
CONTINUOUS
 62
    3
 10
648.27953
 20
1267.7999
 11
648.23722
 21
1264.8574
  0
LINE
  8
0-3
  6
CONTINUOUS
 62
    3
 10
648.23722
 20
1264.8574
 11
648.19298
 21
1261.9178
  0
LINE
  8
0-3
  6
CONTINUOUS
 62
    3
 10
648.19298
 20
1261.9178
 11
648.15081
 21
1258.9785
  0
LINE
  8
0-3
  6
CONTINUOUS
 62
    3
 10
648.15081
 20
1258.9785
 11
648.10835
 21
1256.036
  0
LINE
  8
0-3
  6
CONTINUOUS
 62
    3
 10
648.10835
 20
1256.036
 11
648.06396
 21
1253.097
  0
LINE
  8
0-3
  6
CONTINUOUS
 62
    3
 10
648.06396
 20
1253.097
 11
648.02195
 21
1250.1547
  0
LINE
  8
0-3
  6
CONTINUOUS
 62
    3
 10
648.02195
 20
1250.1547
 11
647.978
 21
1247.2148
  0
LINE
  8
0-3
  6
CONTINUOUS
 62
    3
 10
647.978
 20
1247.2148
 11
647.93524
 21
1244.2732
  0
LINE
  8
0-3
  6
CONTINUOUS
 62
    3
 10
665.2007
 20
1234.2797
 11
664.49758
 21
1234.8994
  0
LINE
  8
0-3
  6
CONTINUOUS
 62
    3
 10
664.49758
 20
1234.8994
 11
663.48699
 21
1235.649
  0
LINE
  8
0-3
  6
CONTINUOUS
 62
    3
 10
663.48699
 20
1235.649
 11
662.20916
 21
1236.5064
  0
LINE
  8
0-3
  6
CONTINUOUS
 62
    3
 10
662.20916
 20
1236.5064
 11
660.69839
 21
1237.4511
  0
LINE
  8
0-3
  6
CONTINUOUS
 62
    3
 10
660.69839
 20
1237.4511
 11
658.97606
 21
1238.4641
  0
LINE
  8
0-3
  6
CONTINUOUS
 62
    3
 10
658.97606
 20
1238.4641
 11
657.0729
 21
1239.5324
  0
LINE
  8
0-3
  6
CONTINUOUS
 62
    3
 10
657.0729
 20
1239.5324
 11
655.00717
 21
1240.6429
  0
LINE
  8
0-3
  6
CONTINUOUS
 62
    3
 10
655.00717
 20
1240.6429
 11
652.79447
 21
1241.7833
  0
LINE
  8
0-3
  6
CONTINUOUS
 62
    3
 10
652.79447
 20
1241.7833
 11
650.45483
 21
1242.9454
  0
LINE
  8
0-3
  6
CONTINUOUS
 62
    3
 10
650.45483
 20
1242.9454
 11
648.00087
 21
1244.1199
  0
LINE
  8
0-3
  6
CONTINUOUS
 62
    3
 10
648.00087
 20
1244.1199
 11
645.44165
 21
1245.2991
  0
LINE
  8
0-3
  6
CONTINUOUS
 62
    3
 10
645.44165
 20
1245.2991
 11
642.79335
 21
1246.4799
  0
LINE
  8
0-3
  6
CONTINUOUS
 62
    3
 10
642.79335
 20
1246.4799
 11
640.06324
 21
1247.6549
  0
LINE
  8
0-3
  6
CONTINUOUS
 62
    3
 10
640.06324
 20
1247.6549
 11
637.265
 21
1248.8202
  0
LINE
  8
0-3
  6
CONTINUOUS
 62
    3
 10
637.265
 20
1248.8202
 11
634.40618
 21
1249.9733
  0
LINE
  8
0-3
  6
CONTINUOUS
 62
    3
 10
634.40618
 20
1249.9733
 11
631.49821
 21
1251.1087
  0
LINE
  8
0-3
  6
CONTINUOUS
 62
    3
 10
631.49821
 20
1251.1087
 11
628.55135
 21
1252.2255
  0
LINE
  8
0-3
  6
CONTINUOUS
 62
    3
 10
628.55135
 20
1252.2255
 11
625.57777
 21
1253.3214
  0
LINE
  8
0-3
  6
CONTINUOUS
 62
    3
 10
625.57777
 20
1253.3214
 11
622.59008
 21
1254.3948
  0
LINE
  8
0-3
  6
CONTINUOUS
 62
    3
 10
622.59008
 20
1254.3948
 11
619.59913
 21
1255.4397
  0
LINE
  8
0-3
  6
CONTINUOUS
 62
    3
 10
619.59913
 20
1255.4397
 11
616.61723
 21
1256.4564
  0
LINE
  8
0-3
  6
CONTINUOUS
 62
    3
 10
616.61723
 20
1256.4564
 11
613.65894
 21
1257.4443
  0
LINE
  8
0-3
  6
CONTINUOUS
 62
    3
 10
613.65894
 20
1257.4443
 11
610.74044
 21
1258.3971
  0
LINE
  8
0-3
  6
CONTINUOUS
 62
    3
 10
610.74044
 20
1258.3971
 11
607.87271
 21
1259.3152
  0
LINE
  8
0-3
  6
CONTINUOUS
 62
    3
 10
607.87271
 20
1259.3152
 11
605.07446
 21
1260.1947
  0
LINE
  8
0-3
  6
CONTINUOUS
 62
    3
 10
605.07446
 20
1260.1947
 11
602.3601
 21
1261.0315
  0
LINE
  8
0-3
  6
CONTINUOUS
 62
    3
 10
602.3601
 20
1261.0315
 11
599.7452
 21
1261.8222
  0
LINE
  8
0-3
  6
CONTINUOUS
 62
    3
 10
599.7452
 20
1261.8222
 11
597.24344
 21
1262.5648
  0
LINE
  8
0-3
  6
CONTINUOUS
 62
    3
 10
597.24344
 20
1262.5648
 11
594.87083
 21
1263.2531
  0
LINE
  8
0-3
  6
CONTINUOUS
 62
    3
 10
648.36638
 20
1273.6812
 11
648.40721
 21
1273.6951
  0
LINE
  8
0-3
  6
CONTINUOUS
 62
    3
 10
601.60738
 20
1216.4864
 11
601.60738
 21
1209.7343
  0
LINE
  8
0-3
  6
CONTINUOUS
 62
    3
 10
601.60738
 20
1209.7343
 11
622.12628
 21
1209.7343
  0
LINE
  8
0-3
  6
CONTINUOUS
 62
    3
 10
622.12628
 20
1216.4864
 11
622.12628
 21
1209.7343
  0
LINE
  8
0-3
  6
CONTINUOUS
 62
    3
 10
601.60738
 20
1216.4864
 11
622.12628
 21
1216.4864
  0
LINE
  8
0-3
  6
CONTINUOUS
 62
    3
 10
592.1002
 20
1281.5842
 11
592.1002
 21
1259.4301
  0
LINE
  8
0-3
  6
CONTINUOUS
 62
    3
 10
595.32929
 20
1274.9419
 11
594.99406
 21
1274.7522
  0
LINE
  8
0-3
  6
CONTINUOUS
 62
    3
 10
594.99406
 20
1274.7522
 11
594.65096
 21
1274.553
  0
LINE
  8
0-3
  6
CONTINUOUS
 62
    3
 10
594.65096
 20
1274.553
 11
594.3037
 21
1274.3445
  0
LINE
  8
0-3
  6
CONTINUOUS
 62
    3
 10
594.3037
 20
1274.3445
 11
593.94902
 21
1274.126
  0
LINE
  8
0-3
  6
CONTINUOUS
 62
    3
 10
593.94902
 20
1274.126
 11
593.58722
 21
1273.9003
  0
LINE
  8
0-3
  6
CONTINUOUS
 62
    3
 10
593.58722
 20
1273.9003
 11
593.21917
 21
1273.6631
  0
LINE
  8
0-3
  6
CONTINUOUS
 62
    3
 10
593.21917
 20
1273.6631
 11
592.84505
 21
1273.4181
  0
LINE
  8
0-3
  6
CONTINUOUS
 62
    3
 10
592.84505
 20
1273.4181
 11
592.46349
 21
1273.1622
  0
LINE
  8
0-3
  6
CONTINUOUS
 62
    3
 10
592.46349
 20
1273.1622
 11
592.07674
 21
1272.8985
  0
LINE
  8
0-3
  6
CONTINUOUS
 62
    3
 10
594.1833
 20
1266.924
 11
593.93477
 21
1266.8765
  0
LINE
  8
0-3
  6
CONTINUOUS
 62
    3
 10
593.93477
 20
1266.8765
 11
593.68966
 21
1266.832
  0
LINE
  8
0-3
  6
CONTINUOUS
 62
    3
 10
593.68966
 20
1266.832
 11
593.44885
 21
1266.7883
  0
LINE
  8
0-3
  6
CONTINUOUS
 62
    3
 10
593.44885
 20
1266.7883
 11
593.21056
 21
1266.7452
  0
LINE
  8
0-3
  6
CONTINUOUS
 62
    3
 10
593.21056
 20
1266.7452
 11
592.97733
 21
1266.7043
  0
LINE
  8
0-3
  6
CONTINUOUS
 62
    3
 10
592.97733
 20
1266.7043
 11
592.74632
 21
1266.6663
  0
LINE
  8
0-3
  6
CONTINUOUS
 62
    3
 10
592.74632
 20
1266.6663
 11
592.51961
 21
1266.6303
  0
LINE
  8
0-3
  6
CONTINUOUS
 62
    3
 10
592.51961
 20
1266.6303
 11
592.29558
 21
1266.5953
  0
LINE
  8
0-3
  6
CONTINUOUS
 62
    3
 10
592.29558
 20
1266.5953
 11
592.07674
 21
1266.5615
  0
LINE
  8
0-3
  6
CONTINUOUS
 62
    3
 10
599.1313
 20
1262.4793
 11
598.18663
 21
1262.6797
  0
LINE
  8
0-3
  6
CONTINUOUS
 62
    3
 10
598.18663
 20
1262.6797
 11
597.28026
 21
1262.8733
  0
LINE
  8
0-3
  6
CONTINUOUS
 62
    3
 10
597.28026
 20
1262.8733
 11
596.41545
 21
1263.0607
  0
LINE
  8
0-3
  6
CONTINUOUS
 62
    3
 10
596.41545
 20
1263.0607
 11
595.59118
 21
1263.2424
  0
LINE
  8
0-3
  6
CONTINUOUS
 62
    3
 10
595.59118
 20
1263.2424
 11
594.8067
 21
1263.417
  0
LINE
  8
0-3
  6
CONTINUOUS
 62
    3
 10
594.8067
 20
1263.417
 11
594.06379
 21
1263.5868
  0
LINE
  8
0-3
  6
CONTINUOUS
 62
    3
 10
594.06379
 20
1263.5868
 11
593.36066
 21
1263.7492
  0
LINE
  8
0-3
  6
CONTINUOUS
 62
    3
 10
593.36066
 20
1263.7492
 11
592.69851
 21
1263.9063
  0
LINE
  8
0-3
  6
CONTINUOUS
 62
    3
 10
592.69851
 20
1263.9063
 11
592.07674
 21
1264.056
  0
LINE
  8
0-3
  6
CONTINUOUS
 62
    3
 10
594.87083
 20
1263.2531
 11
594.50116
 21
1263.3534
  0
LINE
  8
0-3
  6
CONTINUOUS
 62
    3
 10
594.50116
 20
1263.3534
 11
594.14663
 21
1263.4505
  0
LINE
  8
0-3
  6
CONTINUOUS
 62
    3
 10
594.14663
 20
1263.4505
 11
593.80724
 21
1263.5459
  0
LINE
  8
0-3
  6
CONTINUOUS
 62
    3
 10
593.80724
 20
1263.5459
 11
593.48389
 21
1263.6379
  0
LINE
  8
0-3
  6
CONTINUOUS
 62
    3
 10
593.48389
 20
1263.6379
 11
593.17701
 21
1263.7264
  0
LINE
  8
0-3
  6
CONTINUOUS
 62
    3
 10
593.17701
 20
1263.7264
 11
592.88394
 21
1263.8104
  0
LINE
  8
0-3
  6
CONTINUOUS
 62
    3
 10
592.88394
 20
1263.8104
 11
592.60676
 21
1263.893
  0
LINE
  8
0-3
  6
CONTINUOUS
 62
    3
 10
592.60676
 20
1263.893
 11
592.34591
 21
1263.9731
  0
LINE
  8
0-3
  6
CONTINUOUS
 62
    3
 10
592.34591
 20
1263.9731
 11
592.1002
 21
1264.0512
  0
LINE
  8
0-3
  6
CONTINUOUS
 62
    3
 10
589.07377
 20
1284.6123
 11
584.23859
 21
1284.6123
  0
LINE
  8
0-3
  6
CONTINUOUS
 62
    3
 10
589.07377
 20
1238.0962
 11
584.23859
 21
1238.0962
  0
LINE
  8
0-3
  6
CONTINUOUS
 62
    3
 10
586.76426
 20
1253.8678
 11
588.51792
 21
1251.8882
  0
LINE
  8
0-3
  6
CONTINUOUS
 62
    3
 10
588.51792
 20
1251.8882
 11
590.44542
 21
1249.8316
  0
LINE
  8
0-3
  6
CONTINUOUS
 62
    3
 10
590.44542
 20
1249.8316
 11
592.51842
 21
1247.7223
  0
LINE
  8
0-3
  6
CONTINUOUS
 62
    3
 10
592.51842
 20
1247.7223
 11
594.71064
 21
1245.5817
  0
LINE
  8
0-3
  6
CONTINUOUS
 62
    3
 10
594.71064
 20
1245.5817
 11
596.99684
 21
1243.4307
  0
LINE
  8
0-3
  6
CONTINUOUS
 62
    3
 10
596.99684
 20
1243.4307
 11
599.354
 21
1241.2879
  0
LINE
  8
0-3
  6
CONTINUOUS
 62
    3
 10
599.354
 20
1241.2879
 11
601.75986
 21
1239.1703
  0
LINE
  8
0-3
  6
CONTINUOUS
 62
    3
 10
601.75986
 20
1239.1703
 11
604.19466
 21
1237.0934
  0
LINE
  8
0-3
  6
CONTINUOUS
 62
    3
 10
604.19466
 20
1237.0934
 11
606.63986
 21
1235.0714
  0
LINE
  8
0-3
  6
CONTINUOUS
 62
    3
 10
606.63986
 20
1235.0714
 11
609.07838
 21
1233.1168
  0
LINE
  8
0-3
  6
CONTINUOUS
 62
    3
 10
609.07838
 20
1233.1168
 11
611.49493
 21
1231.2403
  0
LINE
  8
0-3
  6
CONTINUOUS
 62
    3
 10
611.49493
 20
1231.2403
 11
613.87599
 21
1229.4507
  0
LINE
  8
0-3
  6
CONTINUOUS
 62
    3
 10
613.87599
 20
1229.4507
 11
616.20925
 21
1227.7565
  0
LINE
  8
0-3
  6
CONTINUOUS
 62
    3
 10
616.20925
 20
1227.7565
 11
618.48431
 21
1226.1626
  0
LINE
  8
0-3
  6
CONTINUOUS
 62
    3
 10
618.48431
 20
1226.1626
 11
620.69257
 21
1224.6739
  0
LINE
  8
0-3
  6
CONTINUOUS
 62
    3
 10
620.69257
 20
1224.6739
 11
622.82614
 21
1223.2932
  0
LINE
  8
0-3
  6
CONTINUOUS
 62
    3
 10
622.82614
 20
1223.2932
 11
624.87999
 21
1222.0213
  0
LINE
  8
0-3
  6
CONTINUOUS
 62
    3
 10
624.87999
 20
1222.0213
 11
626.84981
 21
1220.8585
  0
LINE
  8
0-3
  6
CONTINUOUS
 62
    3
 10
626.84981
 20
1220.8585
 11
628.73292
 21
1219.8018
  0
LINE
  8
0-3
  6
CONTINUOUS
 62
    3
 10
628.73292
 20
1219.8018
 11
628.87144
 21
1219.7411
  0
LINE
  8
0-3
  6
CONTINUOUS
 62
    3
 10
628.87144
 20
1219.7411
 11
629.00877
 21
1219.6835
  0
LINE
  8
0-3
  6
CONTINUOUS
 62
    3
 10
629.00877
 20
1219.6835
 11
629.14476
 21
1219.6285
  0
LINE
  8
0-3
  6
CONTINUOUS
 62
    3
 10
629.14476
 20
1219.6285
 11
629.27912
 21
1219.5766
  0
LINE
  8
0-3
  6
CONTINUOUS
 62
    3
 10
629.27912
 20
1219.5766
 11
629.412
 21
1219.5276
  0
LINE
  8
0-3
  6
CONTINUOUS
 62
    3
 10
629.412
 20
1219.5276
 11
629.54369
 21
1219.4812
  0
LINE
  8
0-3
  6
CONTINUOUS
 62
    3
 10
629.54369
 20
1219.4812
 11
629.67404
 21
1219.4377
  0
LINE
  8
0-3
  6
CONTINUOUS
 62
    3
 10
629.67404
 20
1219.4377
 11
629.80276
 21
1219.3976
  0
LINE
  8
0-3
  6
CONTINUOUS
 62
    3
 10
629.80276
 20
1219.3976
 11
629.93014
 21
1219.3597
  0
LINE
  8
0-3
  6
CONTINUOUS
 62
    3
 10
586.76426
 20
1253.8678
 11
587.80098
 21
1254.3827
  0
LINE
  8
0-3
  6
CONTINUOUS
 62
    3
 10
587.80098
 20
1254.3827
 11
588.72666
 21
1254.9234
  0
LINE
  8
0-3
  6
CONTINUOUS
 62
    3
 10
588.72666
 20
1254.9234
 11
589.54143
 21
1255.4899
  0
LINE
  8
0-3
  6
CONTINUOUS
 62
    3
 10
589.54143
 20
1255.4899
 11
590.24529
 21
1256.082
  0
LINE
  8
0-3
  6
CONTINUOUS
 62
    3
 10
590.24529
 20
1256.082
 11
590.83826
 21
1256.7005
  0
LINE
  8
0-3
  6
CONTINUOUS
 62
    3
 10
590.83826
 20
1256.7005
 11
591.32017
 21
1257.3442
  0
LINE
  8
0-3
  6
CONTINUOUS
 62
    3
 10
591.32017
 20
1257.3442
 11
591.69118
 21
1258.0138
  0
LINE
  8
0-3
  6
CONTINUOUS
 62
    3
 10
591.69118
 20
1258.0138
 11
591.95114
 21
1258.7089
  0
LINE
  8
0-3
  6
CONTINUOUS
 62
    3
 10
591.95114
 20
1258.7089
 11
592.1002
 21
1259.4301
  0
LINE
  8
0-3
  6
CONTINUOUS
 62
    3
 10
592.10109
 20
1241.1242
 11
592.10109
 21
1248.1469
  0
LINE
  8
0-3
  6
CONTINUOUS
 62
    3
 10
631.41953
 20
1267.2554
 11
625.45781
 21
1280.3953
  0
LINE
  8
0-3
  6
CONTINUOUS
 62
    3
 10
608.46686
 20
1195.8828
 11
584.23859
 21
1195.8828
  0
LINE
  8
0-3
  6
CONTINUOUS
 62
    3
 10
612.51681
 20
1199.9328
 11
612.51681
 21
1209.7343
  0
LINE
  8
0-3
  6
CONTINUOUS
 62
    3
 10
606.44181
 20
1192.2411
 11
584.23859
 21
1192.2411
  0
LINE
  8
0-3
  6
CONTINUOUS
 62
    3
 10
608.46686
 20
1194.2664
 11
608.46686
 21
1195.8828
  0
LINE
  8
0-3
  6
CONTINUOUS
 62
    3
 10
612.51681
 20
1229.5215
 11
612.51681
 21
1216.4864
  0
LINE
  8
0-3
  6
CONTINUOUS
 62
    3
 10
607.51684
 20
1234.5215
 11
584.23859
 21
1234.5215
  0
LINE
  8
0-2
  6
CONTINUOUS
 62
    3
 10
703.18742
 20
1225.7649
 11
741.73874
 21
1225.7649
  0
LINE
  8
0-2
  6
CONTINUOUS
 62
    3
 10
662.74912
 20
1215.7651
 11
741.73874
 21
1215.7651
  0
LINE
  8
0-2
  6
CONTINUOUS
 62
    3
 10
741.738
 20
1300.7649
 11
834.23798
 21
1300.7649
  0
LINE
  8
0-2
  6
CONTINUOUS
 62
    3
 10
741.738
 20
1290.7651
 11
834.23798
 21
1290.7651
  0
LINE
  8
0-2
  6
CONTINUOUS
 62
    3
 10
741.738
 20
1255.7649
 11
834.23798
 21
1255.7649
  0
LINE
  8
0-2
  6
CONTINUOUS
 62
    3
 10
741.738
 20
1245.7651
 11
834.23798
 21
1245.7651
  0
LINE
  8
0-2
  6
CONTINUOUS
 62
    3
 10
741.738
 20
1215.765
 11
741.738
 21
1145.7651
  0
LINE
  8
0-2
  6
CONTINUOUS
 62
    3
 10
844.23806
 20
1145.7651
 11
741.738
 21
1203.7394
  0
LINE
  8
0-2
  6
CONTINUOUS
 62
    3
 10
447.99951
 20
1215.765
 11
447.99951
 21
1145.7651
  0
LINE
  8
0-5
  6
CONTINUOUS
 62
    4
 10
586.48901
 20
1330.7658
 11
586.48901
 21
1390.3652
  0
LINE
  8
0-5
  6
CONTINUOUS
 62
    4
 10
589.48902
 20
1330.7658
 11
589.48902
 21
1390.3652
  0
LINE
  8
0-5
  6
CONTINUOUS
 62
    4
 10
592.48903
 20
1330.7658
 11
592.48903
 21
1390.3652
  0
LINE
  8
0-5
  6
CONTINUOUS
 62
    4
 10
595.48904
 20
1330.7658
 11
595.48904
 21
1390.3652
  0
LINE
  8
0-5
  6
CONTINUOUS
 62
    4
 10
598.48905
 20
1330.7658
 11
598.48905
 21
1390.3652
  0
LINE
  8
0-5
  6
CONTINUOUS
 62
    4
 10
601.48891
 20
1330.7658
 11
601.48891
 21
1390.3652
  0
LINE
  8
0-5
  6
CONTINUOUS
 62
    4
 10
604.48892
 20
1330.7658
 11
604.48892
 21
1390.3652
  0
LINE
  8
0-5
  6
CONTINUOUS
 62
    4
 10
607.48893
 20
1330.7658
 11
607.48893
 21
1390.3652
  0
LINE
  8
0-5
  6
CONTINUOUS
 62
    4
 10
610.48894
 20
1330.7658
 11
610.48894
 21
1390.3652
  0
LINE
  8
0-5
  6
CONTINUOUS
 62
    4
 10
613.48895
 20
1330.7658
 11
613.48895
 21
1390.3652
  0
LINE
  8
0-5
  6
CONTINUOUS
 62
    4
 10
616.48896
 20
1330.7658
 11
616.48896
 21
1390.3652
  0
LINE
  8
0-5
  6
CONTINUOUS
 62
    4
 10
619.48897
 20
1330.7658
 11
619.48897
 21
1390.3652
  0
LINE
  8
0-5
  6
CONTINUOUS
 62
    4
 10
622.48898
 20
1330.7658
 11
622.48898
 21
1390.3652
  0
LINE
  8
0-5
  6
CONTINUOUS
 62
    4
 10
625.48899
 20
1330.7658
 11
625.48899
 21
1390.3652
  0
LINE
  8
0-5
  6
CONTINUOUS
 62
    4
 10
628.489
 20
1330.7658
 11
628.489
 21
1390.3652
  0
LINE
  8
0-5
  6
CONTINUOUS
 62
    4
 10
631.48886
 20
1330.7658
 11
631.48886
 21
1390.3652
  0
LINE
  8
0-5
  6
CONTINUOUS
 62
    4
 10
634.48887
 20
1330.7658
 11
634.48887
 21
1390.3652
  0
LINE
  8
0-5
  6
CONTINUOUS
 62
    4
 10
637.48888
 20
1330.7658
 11
637.48888
 21
1390.3652
  0
LINE
  8
0-5
  6
CONTINUOUS
 62
    4
 10
640.48889
 20
1330.7658
 11
640.48889
 21
1390.3652
  0
LINE
  8
0-5
  6
CONTINUOUS
 62
    4
 10
643.4889
 20
1330.7658
 11
643.4889
 21
1390.3652
  0
LINE
  8
0-5
  6
CONTINUOUS
 62
    4
 10
646.48891
 20
1330.7658
 11
646.48891
 21
1390.3652
  0
LINE
  8
0-5
  6
CONTINUOUS
 62
    4
 10
649.48892
 20
1330.7658
 11
649.48892
 21
1390.3652
  0
LINE
  8
0-5
  6
CONTINUOUS
 62
    4
 10
652.48893
 20
1330.7658
 11
652.48893
 21
1390.3652
  0
LINE
  8
0-5
  6
CONTINUOUS
 62
    4
 10
655.48894
 20
1330.7658
 11
655.48894
 21
1390.3652
  0
LINE
  8
0-5
  6
CONTINUOUS
 62
    4
 10
658.48895
 20
1330.7658
 11
658.48895
 21
1390.3652
  0
LINE
  8
0-5
  6
CONTINUOUS
 62
    4
 10
661.48881
 20
1330.7658
 11
661.48881
 21
1390.3652
  0
LINE
  8
0-5
  6
CONTINUOUS
 62
    4
 10
664.48882
 20
1330.7658
 11
664.48882
 21
1390.3652
  0
LINE
  8
0-5
  6
CONTINUOUS
 62
    4
 10
667.48883
 20
1330.7658
 11
667.48883
 21
1390.3652
  0
LINE
  8
0-5
  6
CONTINUOUS
 62
    4
 10
670.48899
 20
1330.7658
 11
670.48899
 21
1390.3652
  0
LINE
  8
0-5
  6
CONTINUOUS
 62
    4
 10
673.48885
 20
1330.7658
 11
673.48885
 21
1390.3652
  0
LINE
  8
0-5
  6
CONTINUOUS
 62
    4
 10
676.48886
 20
1330.7658
 11
676.48886
 21
1390.3652
  0
LINE
  8
0-5
  6
CONTINUOUS
 62
    4
 10
679.48887
 20
1330.7658
 11
679.48887
 21
1390.3652
  0
LINE
  8
0-5
  6
CONTINUOUS
 62
    4
 10
682.48888
 20
1330.7658
 11
682.48888
 21
1390.3652
  0
LINE
  8
0-5
  6
CONTINUOUS
 62
    4
 10
685.48889
 20
1330.7658
 11
685.48889
 21
1390.3652
  0
LINE
  8
0-5
  6
CONTINUOUS
 62
    4
 10
688.4889
 20
1330.7658
 11
688.4889
 21
1390.3652
  0
LINE
  8
0-5
  6
CONTINUOUS
 62
    4
 10
691.48876
 20
1330.7658
 11
691.48876
 21
1390.3652
  0
LINE
  8
0-5
  6
CONTINUOUS
 62
    4
 10
694.48877
 20
1330.7658
 11
694.48877
 21
1390.3652
  0
LINE
  8
0-5
  6
CONTINUOUS
 62
    4
 10
697.48893
 20
1330.7658
 11
697.48893
 21
1390.3652
  0
LINE
  8
0-5
  6
CONTINUOUS
 62
    4
 10
700.48879
 20
1330.7658
 11
700.48879
 21
1390.3652
  0
LINE
  8
0-5
  6
CONTINUOUS
 62
    4
 10
703.4888
 20
1330.7658
 11
703.4888
 21
1390.3652
  0
LINE
  8
0-5
  6
CONTINUOUS
 62
    4
 10
706.48881
 20
1330.7658
 11
706.48881
 21
1390.3652
  0
LINE
  8
0-5
  6
CONTINUOUS
 62
    4
 10
709.48882
 20
1330.7658
 11
709.48882
 21
1390.3652
  0
LINE
  8
0-5
  6
CONTINUOUS
 62
    4
 10
712.48883
 20
1330.7658
 11
712.48883
 21
1390.3652
  0
LINE
  8
0-5
  6
CONTINUOUS
 62
    4
 10
715.48884
 20
1330.7658
 11
715.48884
 21
1390.3652
  0
LINE
  8
0-5
  6
CONTINUOUS
 62
    4
 10
718.48885
 20
1330.7658
 11
718.48885
 21
1390.3652
  0
LINE
  8
0-5
  6
CONTINUOUS
 62
    4
 10
721.48871
 20
1330.7658
 11
721.48871
 21
1390.3652
  0
LINE
  8
0-5
  6
CONTINUOUS
 62
    4
 10
724.48887
 20
1330.7658
 11
724.48887
 21
1390.3652
  0
LINE
  8
0-5
  6
CONTINUOUS
 62
    4
 10
727.48873
 20
1330.7658
 11
727.48873
 21
1390.3652
  0
LINE
  8
0-5
  6
CONTINUOUS
 62
    4
 10
730.48874
 20
1330.7658
 11
730.48874
 21
1390.3652
  0
LINE
  8
0-5
  6
CONTINUOUS
 62
    4
 10
733.48875
 20
1330.7658
 11
733.48875
 21
1390.3652
  0
LINE
  8
0-5
  6
CONTINUOUS
 62
    4
 10
736.48861
 20
1330.7658
 11
736.48861
 21
1390.3652
  0
LINE
  8
0-5
  6
CONTINUOUS
 62
    4
 10
739.48877
 20
1330.7658
 11
739.48877
 21
1390.3652
  0
LINE
  8
0-5
  6
CONTINUOUS
 62
    4
 10
742.48863
 20
1330.7658
 11
742.48863
 21
1390.3652
  0
LINE
  8
0-5
  6
CONTINUOUS
 62
    4
 10
745.48879
 20
1330.7658
 11
745.48879
 21
1390.3652
  0
LINE
  8
0-5
  6
CONTINUOUS
 62
    4
 10
748.48865
 20
1330.7658
 11
748.48865
 21
1390.3652
  0
LINE
  8
0-5
  6
CONTINUOUS
 62
    4
 10
751.48866
 20
1330.7658
 11
751.48866
 21
1390.3652
  0
LINE
  8
0-5
  6
CONTINUOUS
 62
    4
 10
754.48867
 20
1330.7658
 11
754.48867
 21
1390.3652
  0
LINE
  8
0-5
  6
CONTINUOUS
 62
    4
 10
757.48868
 20
1330.7658
 11
757.48868
 21
1390.3652
  0
LINE
  8
0-5
  6
CONTINUOUS
 62
    4
 10
760.48869
 20
1330.7658
 11
760.48869
 21
1390.3652
  0
LINE
  8
0-5
  6
CONTINUOUS
 62
    4
 10
763.4887
 20
1330.7658
 11
763.4887
 21
1390.3652
  0
LINE
  8
0-5
  6
CONTINUOUS
 62
    4
 10
766.48871
 20
1330.7658
 11
766.48871
 21
1390.3652
  0
LINE
  8
0-5
  6
CONTINUOUS
 62
    4
 10
769.48857
 20
1330.7658
 11
769.48857
 21
1390.3652
  0
LINE
  8
0-5
  6
CONTINUOUS
 62
    4
 10
772.48873
 20
1330.7658
 11
772.48873
 21
1390.3652
  0
LINE
  8
0-5
  6
CONTINUOUS
 62
    7
 10
775.48859
 20
1330.7658
 11
775.48859
 21
1390.3652
  0
LINE
  8
0-2
  6
CONTINUOUS
 62
    3
 10
655.15423
 20
1391.0769
 11
694.81205
 21
1409.7273
  0
LINE
  8
0-1
  6
CENTER2
 62
    7
 10
584.238
 20
1055.6756
 11
584.238
 21
1436.2646
  0
ARC
  8
0-2
  6
CONTINUOUS
 62
    3
 10
334.23802
 20
1295.765
 40
4.9997686
 50
90
 51
270
  0
ARC
  8
0-2
  6
CONTINUOUS
 62
    3
 10
334.23802
 20
1250.7649
 40
4.9997686
 50
90
 51
270
  0
ARC
  8
0-2
  6
CONTINUOUS
 62
    3
 10
834.23739
 20
1295.765
 40
4.9997686
 50
270
 51
90
  0
ARC
  8
0-2
  6
CONTINUOUS
 62
    3
 10
834.23739
 20
1250.7649
 40
4.9997686
 50
270
 51
90
  0
ARC
  8
0-2
  6
CONTINUOUS
 62
    3
 10
426.738
 20
1220.7648
 40
4.9997686
 50
90
 51
270
  0
ARC
  8
0-2
  6
CONTINUOUS
 62
    3
 10
741.738
 20
1220.7649
 40
4.9997686
 50
270
 51
90
  0
ARC
  8
0-2
  6
CONTINUOUS
 62
    3
 10
741.738
 20
1325.7659
 40
4.9997686
 50
270
 51
90
  0
ARC
  8
0-3
  6
CONTINUOUS
 62
    3
 10
589.07377
 20
1241.1242
 40
3.0273542
 50
270
 51
0
  0
ARC
  8
0-3
  6
CONTINUOUS
 62
    3
 10
589.07377
 20
1281.5842
 40
3.0273542
 50
0
 51
90
  0
ARC
  8
0-3
  6
CONTINUOUS
 62
    3
 10
608.46686
 20
1199.9328
 40
4.0499993
 50
270
 51
0
  0
ARC
  8
0-3
  6
CONTINUOUS
 62
    3
 10
606.44181
 20
1194.2664
 40
2.0249996
 50
270
 51
0
  0
TEXT
  8
0-d
 10
107.23791
 20
86.035271
 40
15
 41
1
 50
0
  1
図
  0
TEXT
  8
0-d
 10
107.23791
 20
50.035301
 40
15
 41
1
 50
0
  1
番
  0
TEXT
  8
0-d
 10
347.23833
 20
86.035271
 40
15
 41
1
 50
0
  1
承
  0
TEXT
  8
0-d
 10
347.23833
 20
50.035301
 40
15
 41
1
 50
0
  1
認
  0
TEXT
  8
0-d
 10
566.23831
 20
134.03528
 40
15
 41
1
 50
0
  1
尺
  0
TEXT
  8
0-d
 10
566.23831
 20
110.0352
 40
15
 41
1
 50
0
  1
度
  0
TEXT
  8
0-d
 10
467.23813
 20
86.035271
 40
15
 41
1
 50
0
  1
製
  0
TEXT
  8
0-d
 10
467.23813
 20
50.035301
 40
15
 41
1
 50
0
  1
図
  0
TEXT
  8
0-d
 10
887.23818
 20
134.03528
 40
15
 41
1
 50
0
  1
日
  0
TEXT
  8
0-d
 10
887.23818
 20
110.0352
 40
15
 41
1
 50
0
  1
付
  0
TEXT
  8
0-d
 10
621.09394
 20
89.624682
 40
12
 41
1
 50
0
  1
株式
  0
TEXT
  8
0-d
 10
621.09394
 20
76.646414
 40
12
 41
1
 50
0
  1
会社
  0
TEXT
  8
0-d
 10
658.77289
 20
77.483602
 40
24
 41
1
 50
0
  1
スズキベンチレーター
  0
TEXT
  8
0-d
 10
696.98898
 20
47.949828
 40
12
 41
1
 50
0
  1
TEL(054)296-7000  FAX(054)296-7001
  0
TEXT
  8
0-d
 10
604.84753
 20
117.59572
 40
24
 41
1
 50
0
  1
１／６
  0
TEXT
  8
0-8
 10
571.48807
 20
1537.5306
 40
18
 41
1
 50
0.0002899
  1
500
  0
TEXT
  8
0-8
 10
975.83482
 20
1298.2116
 40
18
 41
1
 50
90
  1
130
  0
TEXT
  8
0-8
 10
975.83482
 20
1397.9612
 40
18
 41
1
 50
90
  1
60
  0
TEXT
  8
0-8
 10
975.83482
 20
1107.5151
 40
18
 41
1
 50
90
  1
60
  0
TEXT
  8
0-8
 10
975.83482
 20
1183.015
 40
18
 41
1
 50
90
  1
100
  0
TEXT
  8
0-8
 10
169.23822
 20
1276.7646
 40
18
 41
1
 50
90
  1
350
  0
TEXT
  8
0-8
 10
813.33337
 20
1201.0941
 40
18
 41
1
 50
90
  1
185
  0
TEXT
  8
0-8
 10
513.57943
 20
1015.9004
 40
18
 41
1
 50
0
  1
520*520
  0
TEXT
  8
0-d
 10
121.34614
 20
1693.5081
 40
30
 41
1
 50
0
  1
ＳＴ－３０　　架台型（網付）　断面
  0
TEXT
  8
0-d
 10
119.8978
 20
113.37192
 40
30
 41
1
 50
0
  1
ＳＴ－３０　架台型　断面
  0
TEXT
  8
0-d
 10
136.39259
 20
78.87649
 40
18
 41
1
 50
0
  1
30-A04b
  0
TEXT
  8
0-d
 10
695.64568
 20
62.722876
 40
12
 41
1
 50
0
  1
〒421-2114　静岡市葵区安倍口新田１５２番地
  0
POINT
  8
0-8
 62
    2
 10
334.23802
 20
1522.5301
  0
POINT
  8
0-8
 62
    2
 10
834.23798
 20
1522.5301
  0
POINT
  8
0-8
 62
    2
 10
184.23827
 20
1085.7654
  0
POINT
  8
0-8
 62
    2
 10
184.23827
 20
1436.2646
  0
POINT
  8
0-8
 62
    2
 10
981.83484
 20
1245.7651
  0
POINT
  8
0-8
 62
    2
 10
981.83484
 20
1376.1581
  0
POINT
  8
0-8
 62
    2
 10
981.83484
 20
1436.2646
  0
POINT
  8
0-8
 62
    2
 10
981.83484
 20
1085.7651
  0
POINT
  8
0-8
 62
    2
 10
981.83484
 20
1145.7651
  0
POINT
  8
0-8
 62
    2
 10
324.23808
 20
1008.4548
  0
POINT
  8
0-8
 62
    2
 10
844.23806
 20
1008.4548
  0
POINT
  8
0-8
 62
    2
 10
818.42108
 20
1145.7651
  0
POINT
  8
0-8
 62
    2
 10
818.42108
 20
1330.7658
  0
ENDSEC
  0
EOF
