  0
SECTION
  2
HEADER
  9
$EXTMIN
 10
0
 20
0
  9
$EXTMAX
 10
4200
 20
2970
  0
ENDSEC
  0
SECTION
  2
TABLES
  0
TABLE
  2
LTYPE
 70
     9
  0
LTYPE
  2
CONTINUOUS
 70
    64
  3
実線
 72
    65
 73
     0
 40
0.0
  0
LTYPE
  2
DASHED1
 70
    64
  3
--  --  --  --  --  --  --  --  
 72
    65
 73
     2
 40
2.5
 49
1.25
 49
-1.25
  0
LTYPE
  2
DASHED2
 70
    64
  3
----    ----    ----    ----    
 72
    65
 73
     2
 40
5.0
 49
2.5
 49
-2.5
  0
LTYPE
  2
DASHED3
 70
    64
  3
------  ------  ------  ------  
 72
    65
 73
     2
 40
5.0
 49
3.75
 49
-1.25
  0
LTYPE
  2
CENTER1
 70
    64
  3
----- - ----- - ----- - ----- - 
 72
    65
 73
     4
 40
10.0
 49
6.25
 49
-1.25
 49
1.25
 49
-1.25
  0
LTYPE
  2
CENTER2
 70
    64
  3
----------  --  ----------  --  
 72
    65
 73
     4
 40
20.0
 49
12.5
 49
-2.5
 49
2.5
 49
-2.5
  0
LTYPE
  2
PHANTOM1
 70
    64
  3
--- - - --- - - --- - - --- - - 
 72
    65
 73
     6
 40
10.0
 49
3.25
 49
-1.25
 49
1.25
 49
-1.25
 49
1.25
 49
-1.25
  0
LTYPE
  2
PHANTOM2
 70
    64
  3
--------  -  -  --------  -  -  
 72
    65
 73
     6
 40
20.0
 49
10.0
 49
-2.5
 49
1.25
 49
-2.5
 49
1.25
 49
-2.5
  0
LTYPE
  2
DOT
 70
    64
  3
-   -   -   -   -   -   -   -   
 72
    65
 73
     2
 40
2.5
 49
0.625
 49
-1.875
  0
ENDTAB
  0
TABLE
  2
STYLE
 70
    1
  0
STYLE
  2
STANDARD
 70
    64
 40
0.0
 41
1.0
 42
0.0
 50
0.0
 71
     0
  3
TXT
  4
BIGFONT
  0
ENDTAB
  0
TABLE
  2
LAYER
 70
    5
  0
LAYER
  2
0-1
 70
   64
 62
    7
  6
CONTINUOUS
  0
LAYER
  2
0-2
 70
   64
 62
    7
  6
CONTINUOUS
  0
LAYER
  2
0-8
 70
   64
 62
    7
  6
CONTINUOUS
  0
LAYER
  2
0-d
 70
   64
 62
    7
  6
CONTINUOUS
  0
LAYER
  2
ADD_LINE
 70
   64
 62
    7
  6
CONTINUOUS
  0
ENDTAB
  0
ENDSEC
  0
SECTION
  2
ENTITIES
  0
LINE
  8
0-2
  6
CONTINUOUS
 62
    3
 10
791.97171
 20
2409.042
 11
1053.2714
 21
2476.7529
  0
LINE
  8
0-2
  6
CONTINUOUS
 62
    3
 10
1314.5717
 20
2409.0423
 11
1053.2714
 21
2476.7529
  0
LINE
  8
0-8
  6
CONTINUOUS
 62
    7
 10
453.27164
 20
2166.7536
 11
453.27164
 21
2476.7529
  0
LINE
  8
0-8
  6
CONTINUOUS
 62
    7
 10
770.7723
 20
2166.7536
 11
453.27164
 21
2166.7536
  0
LINE
  8
0-8
  6
CONTINUOUS
 62
    7
 10
803.27148
 20
2654.0181
 11
1303.2721
 21
2654.0183
  0
LINE
  8
0-8
  6
CONTINUOUS
 62
    7
 10
895.77142
 20
2007.8772
 11
1210.7714
 21
2007.8772
  0
LINE
  8
0-d
  6
CONTINUOUS
 62
    7
 10
250.00003
 20
2757.7013
 11
1850.0001
 21
2757.7013
  0
LINE
  8
0-d
  6
CONTINUOUS
 62
    7
 10
250.00003
 20
2767.7014
 11
1850.0001
 21
2767.7014
  0
LINE
  8
0-2
  6
CONTINUOUS
 62
    3
 10
803.27148
 20
2411.7532
 11
1303.2721
 21
2411.7535
  0
LINE
  8
0-2
  6
CONTINUOUS
 62
    3
 10
803.27148
 20
2319.2533
 11
1303.2721
 21
2319.2535
  0
LINE
  8
0-2
  6
CONTINUOUS
 62
    3
 10
803.27148
 20
2329.2531
 11
1303.2721
 21
2329.2533
  0
LINE
  8
0-2
  6
CONTINUOUS
 62
    3
 10
803.27148
 20
2284.2532
 11
1303.2721
 21
2284.2534
  0
LINE
  8
0-2
  6
CONTINUOUS
 62
    3
 10
803.27148
 20
2411.7532
 11
803.27148
 21
2329.2531
  0
LINE
  8
0-2
  6
CONTINUOUS
 62
    3
 10
803.27148
 20
2319.2533
 11
803.27148
 21
2284.2529
  0
LINE
  8
0-2
  6
CONTINUOUS
 62
    3
 10
895.77142
 20
2211.7538
 11
1210.7722
 21
2211.7538
  0
LINE
  8
0-2
  6
CONTINUOUS
 62
    3
 10
895.77142
 20
2221.7536
 11
1210.7722
 21
2221.7536
  0
LINE
  8
0-2
  6
CONTINUOUS
 62
    3
 10
895.77142
 20
2176.7537
 11
1210.7722
 21
2176.7537
  0
LINE
  8
0-2
  6
CONTINUOUS
 62
    3
 10
895.77142
 20
2166.7539
 11
1210.7722
 21
2166.7539
  0
LINE
  8
0-2
  6
CONTINUOUS
 62
    3
 10
895.77142
 20
2211.7538
 11
895.77142
 21
2176.7534
  0
LINE
  8
0-2
  6
CONTINUOUS
 62
    3
 10
1210.7714
 20
2211.7538
 11
1210.7714
 21
2176.7534
  0
LINE
  8
0-2
  6
CONTINUOUS
 62
    3
 10
895.77142
 20
2274.2534
 11
895.77142
 21
2221.7536
  0
LINE
  8
0-2
  6
CONTINUOUS
 62
    3
 10
1210.7714
 20
2274.2534
 11
1210.7714
 21
2221.7536
  0
LINE
  8
0-8
  6
CONTINUOUS
 62
    7
 10
895.77142
 20
2135.1875
 11
895.77142
 21
2007.8772
  0
LINE
  8
0-8
  6
CONTINUOUS
 62
    7
 10
1210.7714
 20
2135.1875
 11
1210.7714
 21
2007.8772
  0
LINE
  8
0-8
  6
CONTINUOUS
 62
    7
 10
803.27148
 20
2444.6887
 11
803.27148
 21
2654.0181
  0
LINE
  8
0-8
  6
CONTINUOUS
 62
    7
 10
853.32361
 20
2476.7529
 11
453.27164
 21
2476.7529
  0
LINE
  8
0-8
  6
CONTINUOUS
 62
    7
 10
1303.2721
 20
2444.6889
 11
1303.2721
 21
2654.0183
  0
LINE
  8
0-2
  6
CONTINUOUS
 62
    3
 10
1210.7714
 20
2211.7538
 11
1210.7714
 21
2176.7534
  0
LINE
  8
0-2
  6
CONTINUOUS
 62
    3
 10
1303.2714
 20
2319.2535
 11
1303.2714
 21
2284.2532
  0
LINE
  8
0-2
  6
CONTINUOUS
 62
    3
 10
803.27148
 20
2274.2534
 11
1303.2721
 21
2274.2536
  0
LINE
  8
0-8
  6
CONTINUOUS
 62
    7
 10
453.27167
 20
1536.2271
 11
453.27167
 21
1771.2267
  0
LINE
  8
0-8
  6
CONTINUOUS
 62
    7
 10
770.7723
 20
1536.2271
 11
453.27167
 21
1536.2271
  0
LINE
  8
0-8
  6
CONTINUOUS
 62
    7
 10
770.7723
 20
1716.2269
 11
453.27167
 21
1716.2269
  0
LINE
  8
0-8
  6
CONTINUOUS
 62
    7
 10
770.7723
 20
1771.2267
 11
453.27167
 21
1771.2267
  0
LINE
  8
0-2
  6
CONTINUOUS
 62
    3
 10
828.27144
 20
566.2968
 11
828.27144
 21
1016.2968
  0
LINE
  8
0-2
  6
CONTINUOUS
 62
    3
 10
828.27144
 20
1016.2968
 11
1278.2714
 21
1016.2968
  0
LINE
  8
0-2
  6
CONTINUOUS
 62
    3
 10
1278.2714
 20
1016.2968
 11
1278.2714
 21
566.2968
  0
LINE
  8
0-2
  6
CONTINUOUS
 62
    3
 10
1278.2714
 20
566.2968
 11
828.27144
 21
566.2968
  0
LINE
  8
0-8
  6
CONTINUOUS
 62
    7
 10
453.27161
 20
381.29662
 11
453.27161
 21
1201.2966
  0
LINE
  8
0-8
  6
CONTINUOUS
 62
    7
 10
1653.2716
 20
566.2968
 11
1653.2716
 21
1016.2968
  0
LINE
  8
0-8
  6
CONTINUOUS
 62
    7
 10
828.27181
 20
1406.8545
 11
1278.2375
 21
1406.8545
  0
LINE
  8
0-2
  6
CONTINUOUS
 62
    3
 10
828.27144
 20
1016.2968
 11
881.30448
 21
963.2636
  0
LINE
  8
0-2
  6
CONTINUOUS
 62
    3
 10
1278.2714
 20
1016.2968
 11
1225.2384
 21
963.2636
  0
LINE
  8
0-2
  6
CONTINUOUS
 62
    3
 10
828.27144
 20
566.2968
 11
881.30448
 21
619.32965
  0
LINE
  8
0-2
  6
CONTINUOUS
 62
    3
 10
1278.2714
 20
566.2968
 11
1225.2384
 21
619.32965
  0
LINE
  8
0-8
  6
CONTINUOUS
 62
    7
 10
909.34516
 20
740.88361
 11
1197.1979
 21
841.70928
  0
LINE
  8
0-2
  6
CONTINUOUS
 62
    3
 10
900.77143
 20
1716.2269
 11
1205.7714
 21
1716.2269
  0
LINE
  8
0-2
  6
CONTINUOUS
 62
    3
 10
900.77143
 20
1771.2267
 11
1205.7714
 21
1771.2267
  0
LINE
  8
0-2
  6
CONTINUOUS
 62
    3
 10
900.77143
 20
1716.2269
 11
828.27181
 21
1536.2271
  0
LINE
  8
0-2
  6
CONTINUOUS
 62
    3
 10
1205.7714
 20
1716.2269
 11
1278.2375
 21
1535.9906
  0
LINE
  8
0-8
  6
CONTINUOUS
 62
    7
 10
900.77143
 20
1897.1082
 11
1205.7714
 21
1897.1082
  0
LINE
  8
0-8
  6
CONTINUOUS
 62
    7
 10
828.27181
 20
1496.4143
 11
828.27181
 21
1406.8545
  0
LINE
  8
0-8
  6
CONTINUOUS
 62
    7
 10
1278.2375
 20
1496.4143
 11
1278.2375
 21
1406.8545
  0
LINE
  8
0-2
  6
CONTINUOUS
 62
    3
 10
900.77143
 20
1761.2267
 11
1205.7714
 21
1761.2267
  0
LINE
  8
0-8
  6
CONTINUOUS
 62
    7
 10
900.77143
 20
1797.729
 11
900.77143
 21
1897.1082
  0
LINE
  8
0-8
  6
CONTINUOUS
 62
    7
 10
1205.7714
 20
1797.729
 11
1205.7714
 21
1897.1082
  0
LINE
  8
0-2
  6
CONTINUOUS
 62
    3
 10
900.77143
 20
1771.2267
 11
900.77143
 21
1761.2267
  0
LINE
  8
0-2
  6
CONTINUOUS
 62
    3
 10
900.77143
 20
1751.2266
 11
900.77143
 21
1716.2269
  0
LINE
  8
0-2
  6
CONTINUOUS
 62
    3
 10
900.77143
 20
1751.2267
 11
1205.7714
 21
1751.2267
  0
LINE
  8
0-2
  6
CONTINUOUS
 62
    3
 10
1205.7714
 20
1751.2267
 11
1205.7714
 21
1716.2269
  0
LINE
  8
0-2
  6
CONTINUOUS
 62
    3
 10
1205.7715
 20
1771.2267
 11
1205.7715
 21
1761.2267
  0
LINE
  8
0-d
  6
CONTINUOUS
 62
    7
 10
628.90718
 20
1430.9423
 11
698.70749
 21
1430.9423
  0
LINE
  8
0-d
  6
CONTINUOUS
 62
    7
 10
628.90718
 20
1430.9423
 11
698.70749
 21
1451.8815
  0
LINE
  8
0-d
  6
CONTINUOUS
 62
    7
 10
698.70749
 20
1430.9423
 11
698.70749
 21
1451.8815
  0
LINE
  8
0-2
  6
CONTINUOUS
 62
    3
 10
1303.2721
 20
2411.7535
 11
1303.2721
 21
2329.2533
  0
LINE
  8
0-d
  6
CONTINUOUS
 62
    7
 10
253.27124
 20
129.99997
 11
1853.2719
 21
129.99997
  0
LINE
  8
0-d
  6
CONTINUOUS
 62
    7
 10
253.27124
 20
29.999976
 11
253.27124
 21
209.99996
  0
LINE
  8
0-d
  6
CONTINUOUS
 62
    7
 10
253.27124
 20
29.999976
 11
1853.2719
 21
29.999976
  0
LINE
  8
0-d
  6
CONTINUOUS
 62
    7
 10
1853.2719
 20
209.99996
 11
1853.2719
 21
29.999976
  0
LINE
  8
0-d
  6
CONTINUOUS
 62
    7
 10
253.27124
 20
209.99996
 11
1853.2719
 21
209.99996
  0
LINE
  8
0-d
  6
CONTINUOUS
 62
    7
 10
1053.2714
 20
209.99996
 11
1053.2714
 21
29.999976
  0
LINE
  8
0-d
  6
CONTINUOUS
 62
    7
 10
653.2716
 20
29.999976
 11
653.2716
 21
129.99997
  0
LINE
  8
0-d
  6
CONTINUOUS
 62
    7
 10
1053.2714
 20
129.99997
 11
1053.2714
 21
209.99999
  0
LINE
  8
0-d
  6
CONTINUOUS
 62
    7
 10
853.27128
 20
29.999976
 11
853.27128
 21
129.99997
  0
LINE
  8
0-d
  6
CONTINUOUS
 62
    7
 10
288.27161
 20
29.999976
 11
288.27161
 21
129.99997
  0
LINE
  8
0-d
  6
CONTINUOUS
 62
    7
 10
688.27146
 20
29.999976
 11
688.27146
 21
129.99997
  0
LINE
  8
0-d
  6
CONTINUOUS
 62
    7
 10
888.27139
 20
29.999976
 11
888.27139
 21
129.99997
  0
LINE
  8
0-d
  6
CONTINUOUS
 62
    7
 10
1018.2715
 20
129.99997
 11
1018.2715
 21
209.99999
  0
LINE
  8
0-d
  6
CONTINUOUS
 62
    7
 10
1553.2718
 20
129.99997
 11
1553.2718
 21
209.99999
  0
LINE
  8
0-d
  6
CONTINUOUS
 62
    7
 10
1588.2717
 20
129.99997
 11
1588.2717
 21
209.99999
  0
LINE
  8
0-8
  6
CONTINUOUS
 62
    7
 10
589.8884
 20
1201.2966
 11
453.27161
 21
1201.2966
  0
LINE
  8
0-8
  6
CONTINUOUS
 62
    7
 10
589.8884
 20
381.29662
 11
453.27161
 21
381.29662
  0
LINE
  8
0-8
  6
CONTINUOUS
 62
    7
 10
1524.3244
 20
1016.2968
 11
1653.2716
 21
1016.2968
  0
LINE
  8
0-8
  6
CONTINUOUS
 62
    7
 10
1524.3244
 20
566.2968
 11
1653.2716
 21
566.2968
  0
LINE
  8
0-2
  6
CONTINUOUS
 62
    3
 10
643.27144
 20
1201.2966
 11
643.27144
 21
381.29662
  0
LINE
  8
0-2
  6
CONTINUOUS
 62
    3
 10
643.27144
 20
381.29662
 11
1463.2714
 21
381.29662
  0
LINE
  8
0-2
  6
CONTINUOUS
 62
    3
 10
1463.2714
 20
1201.2966
 11
1463.2714
 21
381.29662
  0
LINE
  8
0-2
  6
CONTINUOUS
 62
    3
 10
643.27144
 20
1201.2966
 11
1463.2714
 21
1201.2966
  0
LINE
  8
0-2
  6
CONTINUOUS
 62
    3
 10
1463.2714
 20
1480.482
 11
1053.2714
 21
1603.7326
  0
LINE
  8
0-2
  6
CONTINUOUS
 62
    3
 10
1053.2714
 20
1603.7326
 11
643.27144
 21
1480.7377
  0
LINE
  8
0-1
  6
CENTER2
 62
    7
 10
643.27144
 20
791.29663
 11
1463.2714
 21
791.29663
  0
LINE
  8
0-1
  6
CENTER2
 62
    7
 10
1053.2714
 20
2476.7529
 11
1053.2714
 21
381.29662
  0
ARC
  8
0-2
  6
CONTINUOUS
 62
    3
 10
895.77142
 20
2171.7536
 40
4.9997693
 50
90
 51
270
  0
ARC
  8
0-2
  6
CONTINUOUS
 62
    3
 10
895.77142
 20
2216.7536
 40
4.9997693
 50
90
 51
270
  0
ARC
  8
0-2
  6
CONTINUOUS
 62
    3
 10
1210.7714
 20
2171.7536
 40
4.9997693
 50
270
 51
90
  0
ARC
  8
0-2
  6
CONTINUOUS
 62
    3
 10
1210.7714
 20
2216.7536
 40
4.9997693
 50
270
 51
90
  0
ARC
  8
0-2
  6
CONTINUOUS
 62
    3
 10
803.27148
 20
2324.2533
 40
4.9997693
 50
90
 51
270
  0
ARC
  8
0-2
  6
CONTINUOUS
 62
    3
 10
803.27148
 20
2279.2531
 40
4.9997693
 50
90
 51
270
  0
ARC
  8
0-2
  6
CONTINUOUS
 62
    3
 10
1303.2714
 20
2324.2535
 40
4.9997693
 50
270
 51
90
  0
ARC
  8
0-2
  6
CONTINUOUS
 62
    3
 10
1303.2714
 20
2279.2534
 40
4.9997693
 50
270
 51
90
  0
ARC
  8
0-2
  6
CONTINUOUS
 62
    3
 10
1205.7715
 20
1756.2267
 40
4.9997693
 50
90
 51
270
  0
ARC
  8
0-2
  6
CONTINUOUS
 62
    3
 10
900.77137
 20
1756.2267
 40
4.9997693
 50
270
 51
90
  0
CIRCLE
  8
0-2
  6
CONTINUOUS
 62
    3
 10
1053.2714
 20
791.29663
 40
152.5
  0
TEXT
  8
0-8
 10
438.27159
 20
2296.7528
 40
30
 41
1
 50
90
  1
310
  0
TEXT
  8
0-8
 10
1032.0214
 20
2669.0186
 40
30
 41
1
 50
0
  1
500
  0
TEXT
  8
0-8
 10
1018.2714
 20
2017.8772
 40
30
 41
1
 50
0
  1
315φ
  0
TEXT
  8
0-8
 10
1018.2714
 20
1907.1082
 40
30
 41
1
 50
0
  1
305φ
  0
TEXT
  8
0-8
 10
438.27162
 20
1732.4768
 40
30
 41
1
 50
90
  1
55
  0
TEXT
  8
0-8
 10
438.27162
 20
1607.477
 40
30
 41
1
 50
90
  1
180
  0
TEXT
  8
0-8
 10
1032.0046
 20
1416.8546
 40
30
 41
1
 50
0
  1
450
  0
TEXT
  8
0-8
 10
1643.2715
 20
770.04674
 40
30
 41
1
 50
90
  1
450
  0
TEXT
  8
0-8
 10
1016.9335
 20
789.16407
 40
30
 41
1
 50
19.303787
  1
305φ
  0
TEXT
  8
0-d
 10
726.22509
 20
1431.9011
 40
30
 41
1
 50
0
  1
3
  0
TEXT
  8
0-d
 10
649.55053
 20
1379.5068
 40
30
 41
1
 50
0.0002136
  1
10
  0
TEXT
  8
0-8
 10
443.27163
 20
770.04674
 40
30
 41
1
 50
90
  1
≒　820
  0
TEXT
  8
0-d
 10
256.25744
 20
2781.1037
 40
50
 41
1
 50
0
  1
ＳＴ－３０　直付型立面、直付袴立面・平面
  0
TEXT
  8
0-d
 10
258.27126
 20
97.499955
 40
25
 41
1
 50
0
  1
図
  0
TEXT
  8
0-d
 10
258.27126
 20
37.49997
 40
25
 41
1
 50
0
  1
番
  0
TEXT
  8
0-d
 10
658.27161
 20
97.499955
 40
25
 41
1
 50
0
  1
承
  0
TEXT
  8
0-d
 10
658.27161
 20
37.49997
 40
25
 41
1
 50
0
  1
認
  0
TEXT
  8
0-d
 10
1023.2716
 20
177.5
 40
25
 41
1
 50
0
  1
尺
  0
TEXT
  8
0-d
 10
1023.2716
 20
137.49999
 40
25
 41
1
 50
0
  1
度
  0
TEXT
  8
0-d
 10
858.27154
 20
97.499955
 40
25
 41
1
 50
0
  1
製
  0
TEXT
  8
0-d
 10
858.27154
 20
37.49997
 40
25
 41
1
 50
0
  1
図
  0
TEXT
  8
0-d
 10
1558.2716
 20
177.5
 40
25
 41
1
 50
0
  1
日
  0
TEXT
  8
0-d
 10
1558.2716
 20
137.49999
 40
25
 41
1
 50
0
  1
付
  0
TEXT
  8
0-d
 10
1114.6976
 20
103.48224
 40
20
 41
1
 50
0
  1
株式
  0
TEXT
  8
0-d
 10
1114.6976
 20
81.851829
 40
20
 41
1
 50
0
  1
会社
  0
TEXT
  8
0-d
 10
1177.4959
 20
83.247328
 40
40
 41
1
 50
0
  1
スズキベンチレーター
  0
TEXT
  8
0-d
 10
1241.1893
 20
34.024291
 40
20
 41
1
 50
0
  1
TEL(054)296-7000  FAX(054)296-7001
  0
TEXT
  8
0-d
 10
1087.6205
 20
150.10074
 40
40
 41
1
 50
0
  1
１／１０　　１／１
  0
TEXT
  8
0-d
 10
306.86238
 20
85.568684
 40
30
 41
1
 50
0
  1
30-A01
  0
TEXT
  8
0-d
 10
266.463
 20
142.58745
 40
30
 41
1
 50
0
  1
ＳＴ－３０　直付型立面、直付袴立面・平面
  0
TEXT
  8
0-d
 10
1238.9508
 20
58.646055
 40
20
 41
1
 50
0
  1
〒421-2114　静岡市葵区安倍口新田１５２番地
  0
POINT
  8
0-8
 62
    2
 10
453.27164
 20
2166.7536
  0
POINT
  8
0-8
 62
    2
 10
453.27164
 20
2476.7529
  0
POINT
  8
0-8
 62
    2
 10
803.27148
 20
2654.0181
  0
POINT
  8
0-8
 62
    2
 10
1303.2721
 20
2654.0183
  0
POINT
  8
0-8
 62
    2
 10
895.77142
 20
2007.8772
  0
POINT
  8
0-8
 62
    2
 10
1210.7714
 20
2007.8772
  0
POINT
  8
0-8
 62
    2
 10
453.27167
 20
1536.2271
  0
POINT
  8
0-8
 62
    2
 10
453.27167
 20
1716.2269
  0
POINT
  8
0-8
 62
    2
 10
453.27167
 20
1771.2267
  0
POINT
  8
0-8
 62
    2
 10
453.27161
 20
381.29662
  0
POINT
  8
0-8
 62
    2
 10
453.27161
 20
1201.2966
  0
POINT
  8
0-8
 62
    2
 10
1653.2716
 20
566.2968
  0
POINT
  8
0-8
 62
    2
 10
1653.2716
 20
1016.2968
  0
POINT
  8
0-8
 62
    2
 10
828.27181
 20
1406.8545
  0
POINT
  8
0-8
 62
    2
 10
1278.2375
 20
1406.8545
  0
POINT
  8
0-8
 62
    2
 10
909.34516
 20
740.88361
  0
POINT
  8
0-8
 62
    2
 10
1197.1979
 20
841.70928
  0
POINT
  8
0-8
 62
    2
 10
900.77143
 20
1897.1082
  0
POINT
  8
0-8
 62
    2
 10
1205.7714
 20
1897.1082
  0
ENDSEC
  0
EOF
